Oops, an error
Loading. Please wait.

Angel Chords

version 3
version 3

Whole song

1,776 views 6 this week
no commentswrite comment
1 2 3 4 5
please rate
add to favorites
launch autoscroll
font size
0
reset
transpose
0
reset
display chords
guitar tuner
Tab Pro tools
  • play this tab
  • loop segment
  • change instrument
  • show fretboard
  • metronome
×
Best way to learn
"Angel"
Autoscroll
slow
fast
+/-
esc
set tempo
stop
Difficulty
intermediate
Tuning: Standard (EADGBe)

Chords used:
B:   E-----7------|
     B-----7------|
     G-----8------|
     D-----9------|
     A-----9------|
     E-----7------|

E:   E-----0------|
     B-----0------|
     G-----1------|
     D-----2------|
     A-----2------|
     E-----0------|

F#:  E-----2------|
     B-----2------|
     G-----3------|
     D-----4------|
     A-----4------|
     E-----2------|

F#m: E-----2------|
     B-----2------|
     G-----2------|
     D-----4------|
     A-----4------|
     E-----2------|

G:   E-----3------|
     B-----3------|
     G-----4------|
     D-----5------|
     A-----5------|
     E-----3------|

Ab:  E-----4------|
     B-----4------|
     G-----5------|
     D-----6------|
     A-----6------|
     E-----4------|

Intro:
E---------------------------------------------------|
B---------------------------------------------------|
G---------------------------------------------------|
D----------9----------------------------------------|
A-----7/9-----9----6-----2h4--------2---------------|
E-7\------------------------------------------------|


E---------------------------------------------------|
B---------------------------------------------------|
G---------------------------------------------------|
D---------9-----------------------------------------|
A---7/9------9----6-----2h4--------2----------------|
E-7-------------------------------------------------|

Verse 1:
B              E
   I call you up, you pick up
B                E
   You call my bluff on the card tonight
B                     E
     You hold too close, your hands to your chest
B                         E
      I can read your eyes, but I confess
F#              E
   It's lonely far from you, oh
B         E
   Even when you're right by me
F#         E                 B
It's only why I wait for you
(B)        E
To take my hand

Chorus:
Ab                                  F#m
Why do I beg like a child for your candy
Ab                                    F#m
Why do I come after you like I do, I love you
Ab        G                F#m          E         B
Whate'er you are, I swear, you'll be my angel

Verse 2:
B         E
I play my cards as best I can
B              E
But I lose my luck when you're not here
B            E
My darling-heart, won't you please give in
B            E
I may be strong, but I want you back again.
F#               E
When you're not here, oh, it's hard to pretend

B              E
It's all all right again
F#                 E
When you're not here, love, it's hard to pretend
B            E
It's all all right, still

Chorus:
Ab                                  F#m
Why do I beg like a child for your candy
Ab                                    F#m
Why do I come after you like I do, I love you
Ab        G                F#m          E         B
Whate'er you are, I swear, you'll be my angel

Bridge:
B                      E
You watch the deck, count your cards
B                    E
Makes no sense that I'm always losin'

Solo:
E---------------------------------------------------|
B---------------------------------------------------|
G---------------------------------------------------|
D---------9-----------------------------------------|
A---7/9-----9----6-----2h4--------2-----------------|
E-7-------------------------------------------------|

E
When you're gone

E---------------------------------------------------|
B---------------------------------------------------|
G---------------------------------------------------|
D---------9-----------------------------------------|
A---7/9-----9----6-----2h4--------2-----------------|
E-7-------------------------------------------------|

E

Chorus:
Ab                                  F#m
Why do I beg like a child for your candy
Ab                                    F#m
Why do I come after you like I do, I love you
Ab        G                F#m          E         B
Whate'er you are, I swear, you'll be my angel


Solo
E---------------------------------------------------|
B---------------------------------------------------|
G---------------------------------------------------|
D---------9-----------------------------------------|
A---7/9-----9----6-----2h4--------2-----------------|
E-7-------------------------------------------------|

E
When you're gone

E---------------------------------------------------|
B---------------------------------------------------|
G---------------------------------------------------|
D---------9-----------------------------------------|
A---7/9-----9----6-----2h4--------2-----------------|
E-7-------------------------------------------------|

E
comments
We did not receive enough feedback on this tab! Please rate:
print report bad tab
1 2 3 4 5
I want to post or [tab]
guest
You may want to rate the tab now too:
select rating
Please do not post tabs as comments. Select "correction" instead!