Oops, an error
Loading. Please wait.

Ants Marching Tab

version 1
version 1

Interactive

122,209 views 78 this week
2 commentsread comments
1 2 3 4 5
x 14
add to favorites
launch autoscroll
font size
0
reset
how to read this tab
guitar tuner
backing track
0:00
0:00
Autoscroll
slow
fast
+/-
esc
set tempo
stop
[Intro]
(Violin transcribed for guitar)
e|-------------------------------------------|
B|-10-----10-----10-----10-----10--10--10--10|
G|-10h11--10h11--10h11--10h11--12--12--12--12|
D|-------------------------------------------|
A|-------------------------------------------|
E|-------------------------------------------|

[Verses]
(Main Riff)
"He wakes up in the morning"
e|-2-----------------3-----------------|
B|-3-----------------3-----------------|
G|-2-----------------0-----------------|
D|-0------4-----4----0------5-----5h7p5|  (x2)
A|-0--4h5---4h5---5--2--4/5---4/5------|
E|-2-----------------3-----------------|

[Chorus]
"Take These Chances Place Them In A Box Until A..."                                                    
e|-2-----------------3-----------------|
B|-3-----------------3-----------------|
G|-2-----------------0-----------------|
D|-0------4-----4----0------5-----5h7p5|                 
A|-0--4h5---4h5---5--2--4/5---4/5------|
E|-2-----------------3-----------------|

"Quieter Time Lights Down You Up And Die"
e|-2-2-2-2-2-2-3-3-3-2-0|
B|-3-3-3-3-3-3-3-3-3-3-2|
G|-4-4-4-2-2-2-0-0-0-4-2|
D|-4-4-4-0-0-0-0-0-0-4-2|
A|-2-2-2-0-0-0-2-2-2-2-0|
E|-2-2-2-2-2-2-3-3-3-2-0|
 
[Verse 2]
"Goes To Visit His Mommy..."
[Chorus 2]
"Take These Chances..."
e|-2-2-2-2-2-2-3-3-3-2-0|
B|-3-3-3-3-3-3-3-3-3-3-2|
G|-4-4-4-2-2-2-0-0-0-4-2|
D|-4-4-4-0-0-0-0-0-0-4-2|
A|-2-2-2-0-0-0-2-2-2-2-0|
E|-2-2-2-2-2-2-3-3-3-2-0|

[Verse 3]
"Driving Along This Highway..."
1st Interlude
"When All The Little Ants Are Marching..."
e|------------------------------|
B|------------------------------|
G|-4-4-4-4-4-4-4-4-4-4-4-4-4-4-4|
D|-0-0-0-0-0-0-0-2-2-2-2-2-2-2-2| (x2)
A|-2-2-2-2-0-0-0-2-2-2-2-2-2-2-2|
E|-3-3-3-3-2-2-2-0-0-0-0-0-0-0-0|

[Chorus 2]
"Take These Chances..."
e|-2-2-2-2-2-2-3-3-3-2-0|
B|-3-3-3-3-3-3-3-3-3-3-2|
G|-4-4-4-2-2-2-0-0-0-4-2|
D|-4-4-4-0-0-0-0-0-0-4-2|
A|-2-2-2-0-0-0-2-2-2-2-0|
E|-2-2-2-2-2-2-3-3-3-2-0|

(After Chord Progression In 2nd Interlude)
e|-0-0-0-0-3-3-3-2-2-2-2-2-2-2-2-2-2-2-2-2-2-2-2-3-3-3-2-0|
B|-1-1-1-1-3-3-3-3-3-3-3-3-3-3-3-3-3-3-3-3-3-3-3-3-3-3-3-2|
G|-2-2-2-2-0-0-0-2-2-2-2-2-2-2-2-4-4-4-4-2-2-2-2-0-0-0-4-2|
D|-2-2-2-2-0-0-0-0-0-0-0-0-0-0-0-4-4-4-4-0-0-0-0-0-0-0-4-2|
A|-0-0-0-0-2-2-2-0-0-0-0-0-0-0-0-2-2-2-2-0-0-0-0-2-2-2-2-0|
E|-0-0-0-0-3-3-3-2-2-2-2-2-2-2-2-2-2-2-2-2-2-2-2-3-3-3-2-0|

[Outro]
(Main Riff)
"He wakes up in the morning"
e|-2-----------------3-----------------|
B|-3-----------------3-----------------|
G|-2-----------------0-----------------|
D|-0------4-----4----0------5-----5h7p5|  (x2)
A|-0--4h5---4h5---5--2--4/5---4/5------|
E|-2-----------------3-----------------|

[Ending]
"Lights Down You Up And Die Here"
e|-3-3-3-3-2-2-2--2|
B|-3-3-3-3-3-3-3--3|
G|-0-0-0-0-2-2-2--2|
D|-0-0-0-0-0-0-0--0|
A|-2-2-2-2-0-0-0--0|
E|-3-3-3-3-2-2-2--2|


************************************

| h  Hammer-on
| p  Pull-off
| /  Slide up

************************************
Suggest correction
comments
print report bad tab
2 comments total.
+3 reply
Phoebus 20 Jan 31, 2005 07:00 PM

actually it sounds about the same if you slide or hammer, if you can hammer it right
i dont think havin a hammer instead of a slide makes it a bad tab, seeing how the rest is fine, and if youre playing by yourself the hammre on part doesnt really work anyway

guest
You may want to rate the tab now too:
select rating
Wanna post a correction for this tab? Suggest correction