Oops, an error
Loading. Please wait.

Ants Marching Bass Tab

version 2
version 2

Whole song

Interactive

2,208 views 9 this week
no commentswrite comment
1 2 3 4 5
please rate
add to favorites
launch autoscroll
font size
0
reset
guitar tuner
Autoscroll
slow
fast
+/-
esc
set tempo
stop
Help us to improve Ultimate-Guitar.com Take our survey!
×
Contributor
Difficulty
intermediate
Dave Matthews Band
Ants Marching
Under The Table and Dreaming

Intro/Verse 1- Riff 1

Prechorus- Riff 1

Chorus 1- Riff 1

PostChorus- C D - Dmaj Walk Up

Verse 2- Riff 1

Chorus 2- C D G B A - Dmaj Walk Down

Post Chorus 2- C D G B A

Verse 3- Riff 1 (No Singing) - Dmaj Walk Up (No Singing) - Riff 1

Bridge- G F# E - Riff 1 - G G - G G (High Octive) - Riff 1 (Half) - G G - (High Octive)

Pre Chorus 3- C D G B A - Dmaj Walk Down

Chorus 3- C D G B A - Riff 1 - Dmaj Walk Up

Bridge 2/Outro- G G G G G G G G - G F# E - C D G B A - Riff 1

End on D

----------------------------------------------------------------------------

p= Pull Off
h= Hammer On
/= Slide Up
\= Slide Down
Riff 1
G-|-----------|-------------|
D-|---5---5---|----5-5-7-7--|
A-|5h6-5h6-6--|-5h6-------5-|
E-|---------3-|-------------|
B-|-----------|-------------|


Dmaj Walk Up Riff
G-|--------------------------------------------------|
D-|-----------------------------9--12-9-10--9-11-12--|
A-|-----9---9-10--9-10-12--10-12---------------------|
E-|10-12--12-----------------------------------------|
B-|--------------------------------------------------|

OR

Dmaj Walk Up Riff
G-|----------------------4---4-6--4-6-7--------------|
D-|---4--4-5--4-5-7--5-7----7------------------------|
A-|5-7--7--------------------------------------------|
E-|--------------------------------------------------|
B-|--------------------------------------------------|

OR

Dmaj Walk Up Riff
G-|--------------------------------------------------|
D-|0-2-4--2-4-5--4-5-7--5-7-9--7-9-11--9-11-12-------|
A-|--------------------------------------------------|
E-|--------------------------------------------------|
B-|--------------------------------------------------|


Dmaj Walk Down Riff
G-|--------------------------------------------------|
D-|12p11--11p9--9------------------------------------|
A-|--------------h12--12p10--10p9--9-----------------|
E-|---------------------------------h12--12p10-------|
B-|--------------------------------------------------|

OR

Dmaj Walk Down Riff
G-|7p6--6p4--4---------------------------------------|
D-|-----------h7--7p6--6p4--4------------------------|
A-|--------------------------h7--7p5-----------------|
E-|--------------------------------------------------|
B-|--------------------------------------------------|

OR

Dmaj Walk Down Riff
G-|--------------------------------------------------|
D-|12p11--11p9--9p7--7p5--5p4--4p2--2p0--------------|
A-|--------------------------------------------------|
E-|--------------------------------------------------|
B-|--------------------------------------------------|


Red Rocks Jamming Intro
G-|--------------------------------------------------|
D-|5h7-5---------------------------------------------|
A-|-----7-5------------------------------------------|
E-|--------5-3--7-8/--7-8/--7-8/--7-8/-8/------------|
B-|--------------------------------------------------|

By: Ryan B.
Roswell, Ga
comments
We did not receive enough feedback on this tab! Please rate:
print report bad tab
1 2 3 4 5
I want to post or [tab]
guest
You may want to rate the tab now too:
select rating
Please do not post tabs as comments. Select "correction" instead!