Oops, an error
Loading. Please wait.

Baby Blue Tab

version 2
version 2

Whole song

17,685 views 18 this week
2 commentsread comments
1 2 3 4 5
accurate
x 6
add to favorites
launch autoscroll
font size
0
reset
how to read this tab
guitar tuner
Tab Pro tools
  • play this tab
  • loop segment
  • change instrument
  • show fretboard
  • metronome
×
Best way to learn
"Baby Blue"
Autoscroll
slow
fast
+/-
esc
set tempo
stop
Contributor
Difficulty
Capo
novice
8th fret
-------------------------------------------------------------------------------
                          Baby Blue - Dave Matthews Band
-------------------------------------------------------------------------------
Tabbed by: Willis
Album: Big Whiskey & the GrooGrux King
Tuning: Standard capo 8th fret
 (it'll sound a little different because Dave plays it on a 12-string)
	
Chords used:
   Bm C(add9) D/F# Em G
e|-2-----3-----2---3--3-|
b|-3-----3-----3---3--3-|
g|-4-----0-----2---0--0-|
d|-4-----2-----0---2--0-|
a|-2-----3-----x---2--2-|
e|-x-----x-----2---0--3-|


Intro:
e|-------------------------------------------------------------------------|
b|-------------------------------------------------------------------------|
g|----------0----0------------0----0------------0---00---00---00---00---00-| 2X
d|-oh2-22-4----------oh2-22-4----------0h2-22-4----------------------------|
a|------------3-----------------2---------------------------0----2---------|
e|------------------------------------------------2----3--------------0----|

Verse 1-Riff 1(:18)
	         C(add9)   G
e|---------------3--33-----3--33----------------|
b|---------------3--33-----3--33----------------|
g|----------0----0--00-----0--00----------------| 3X
d|-0h2-22-4------2--22-----0--00----------------|
a|------------3--3--33-----2--22--------0--2----|
e|----------------------3--3--33--2--3--------0-|
Confess, your kiss still knocks me off my legs. 
The first time I saw you was like a punch right through my chest. 
I will forever, ‘cause you’ll forever be

Verse 1-Riff 2(:45)   
  	         C(add)9   G					  D/F#
e|---------------3--33-----3--33----------------------------------2---2--22-2--3---3--33-3-|
b|---------------3--33-----3--33----------------------------------3---3--33-3--3---3--33-3-|
g|----------0----0--00-----0--00----------------------------------2---2--22-2--0---0--00-0-|
d|-0h2-22-4------2--22-----0--00----------------------------------0---0--00-0--0---0--00-0-|
a|------------3--3--33-----2--22--------0--2-----0--2--3----------x---x--xx-x--2---2--22-2-|
e|----------------------3--3--33--2--3--------3-----------1---0---2---2--22-2--3---3--33-3-|
My one true broken heart. Pieces inside of me and you forever, my baby.

Chourus 1(1:03)
    Bm    Em        G        Bm             C(add9) 
You will rest your head, your strength wants saving. 
    Em       G         Bm       C(add9)
And when you wake you will fly away, 
      Em           G         Bm        C(add9) 
Holding tight to the legs of all your angels. 
Em         G       Bm      D/F#    
Goodbye my love, into your blue, blue eyes, 
        C(add9)
In your blue, blue world, 

 You're my  ba--by   blue.
e|--------------------|
b|--------------------|
g|--------------------|
d|--------------------|
a|----------0---2-----|
e|-2----3-----------0-|


Verse 2-Riff 1(1:53)
	         C(add9)   G
e|---------------3--33-----3--33----------------|
b|---------------3--33-----3--33----------------|
g|----------0----0--00-----0--00----------------| 3X
d|-0h2-22-4------2--22-----0--00----------------|
a|------------3--3--33-----2--22--------0--2----|
e|----------------------3--3--33--2--3--------0-|
Confess I'm not quite ready to be left. 
Still, I know I gave my level best. 
You give, you give, to this I can attest. 
 
Verse 2-Riff 2(2:20)   
  	         C(add9)   G			      D/F#
e|---------------3--33-----3--33----------------------2---2--22-2--3---3--33-3-|
b|---------------3--33-----3--33----------------------3---3--33-3--3---3--33-3-|
g|----------0----0--00-----0--00----------------------2---2--22-2--0---0--00-0-|
d|-0h2-22-4------2--22-----0--00----------------------0---0--00-0--0---0--00-0-|
a|------------3--3--33-----2--22-----0--2--3----------x---x--xx-x--2---2--22-2-|
e|----------------------3--3--33--3-----------1---0---2---2--22-2--3---3--33-3-|
You made me, you made me. You and me forever, baby

Chourus 1(2:35)
    Bm    Em        G        Bm             C(add9)
You will rest your head, your strength wants saving. 
    Em       G         Bm       C(add9)
And when you wake you will fly away, 
      Em           G         Bm        C(add9)
Holding tight to the legs of all your angels. 
Em         G       Bm      D/F# 
Goodbye my love, into your blue, blue eyes, 
        C(add9)
In your blue, blue world,

  You  and me  for---ever.
e|---------------------------|
b|---------------------------|
g|---------------------------|
d|---------------------------|
a|-----0---2---3-------------|
e|-3---------------1---0---3-|
comments
print report bad tab
2 comments total.
0 reply
slayerpwner wrote on May 25 2010, 03:08 pm

is there an easier way to play the Bm chord? my fingers are too fat

0 reply
willisiscool wrote on May 25 2010, 05:13 pm

i guess if you wanted to do it simply you could play this
e-x-
B-x-
G-4-
D-4-
A-2-
E-x-
but it might sound a little bad

I want to post or [tab]
guest
You may want to rate the tab now too:
select rating
Please do not post tabs as comments. Select "correction" instead!