Oops, an error
Loading. Please wait.

Baby Blue Tab

version 3
version 3

Whole song

2,144 views 3 this week
3 commentsread comments
1 2 3 4 5
please rate
add to favorites
launch autoscroll
font size
0
reset
how to read this tab
guitar tuner
Autoscroll
slow
fast
+/-
esc
set tempo
stop
Help us to improve Ultimate-Guitar.com Take our survey!
×
Author
Difficulty
Capo
intermediate
6th fret
Dave Matthews Band
Big Whiskey and the GrooGrux King
Baby Blue

This is how I play it

(Capo on 6th)
(Standard Tuning)
(Chords in this song sound better upstrummed and downstrummed quickly)
(Strum softly, this is a soft & sweet song)


h= hammer on
x= mute


Intro
E:-----------------0-------------------0--|
B:-----------------1-------------------3--|
G:------------0----0--------------0----0--|
D:--0h2-2-2h4------2----0h2-2-2h4------0--|
A:--------------3--3----------------2--2--|
E:-----------------x-------------------x--|

E:-----------------0-----0-----0-----0----|
B:------------0----3-----3-----3-----3----|
G:--0h2-2-2h4------0-----0-----0-----0----|
D:-----------------0-----0-----0-----0----|
A:-----------------x-----x--0-----2-------|
E:--------------2-----3-------------------|

E:-----0-----0----------------------------|
B:-----0-----0----------------------------|
G:-----0-----0----------------------------|
D:-----2-----2----------------------------|
A:-----2-----2----------------------------|
E:--0--0--0--0----------------------------|

Second Time Around (confess...your kiss...)
E:------------------------0-0-0-0-----------0-0-0-0-|
B:---------------------1--1-1-1-0--------3--3-3-3-0-|
G:------------0------0----0-0-0-0------0----0-0-0-0-|
D:--0h2-2-2h4------2------2-2-2-0----0------0-0-0-0-|
A:---------------3--------3-3-3-0--2--------2-2-2-0-|
E:--------------------------------------------------|

Here's where the chorus comes in, listen to song for strumming pattern
E:---------------------1-----1--------2-----2--------0-----0------------|
B:---------------------1-----1--------3-----3--------3-----3------------|
G:---------------------2-----2--------2-----2--------0-----0------------|
D:---------------------3-----3-----0-----0-----0-----0-----0------------|
A:------0-2-----2-3----3-----3-----------------------2-----2------------|
E:--2-3-----2-3-----1--1--1--1--1-----------------3--3--3--3------------|

   (you will.............rest your head...)
E:-------2-----2-------0-----0-------0-----0-------2-----2---------------|
B:-------3-----3-------0-----0-------3-----3-------3-----3-------1-----1-|
G:-------4-----4-------0-----0-------0-----0-------4-----4-------0-----0-|
D:-------4-----4-------2-----2-------0-----0-------4-----4-------2-----2-|
A:--0-2--2--2--2--2----2-----2-------2-----2--0-2--2--2--2--2-3--3--3--3-|
E:------------------0--0--0--0--2-3--3--3--3-----------------------------|

E:-------------------------------0-0-----2-----2-------0--|
B:--------------------1(hold)----1-0-----3-----3-------3--|
G:------0------0-----------------2-0-----2-----2-------0--|
D:----2------0------2------------2-0--0-----0----------0--|
A:--3------2------0--------------0-0-------------------2--|
E:------------------------------------------------2-3--3--|
   (you're my baby blue...)
E:--------------------------|
B:--------------------------|
G:-----------0--------------|
D:-----------2--------------|
A:------0-2--2--------------|
E:--2-3------0--------------|

Back to intro and just repeat the above tab for the second part of the song


Outro
(you and me for........ev.....er)
E:--------------1------0------0----|
B:--------------1------0------3----|
G:--------------2------0------0----|
D:--------------3------2------0----|
A:------2-3-----3------2------2----|
E:--2-3---------1------0------3----|


I hope it helps


C.M.B.
Suggest correction
What's this?
You can suggest a correction to this tab. Community and Mods will review your correction and vote to approve or reject it.
comments
We did not receive enough feedback on this tab! Please rate:
print report bad tab
1 2 3 4 5
3 comments total.
0 reply
willisiscool 120 wrote on April 30 2010, 10:47 pm

capo 7 moron

0 reply
willisiscool 120 wrote on April 30 2010, 10:48 pm

*8*

0 reply
cbrown86 28 wrote on August 8 2010, 05:50 am

I said it's how I play it, not how dave plays it. I think it sounds better with capo 6 personally.

guest
You may want to rate the tab now too:
select rating
Please do not post tabs as comments. Select "correction" instead!