Oops, an error
Loading. Please wait.

Belly Full Tab

version 1
version 1

Whole song

Video

4,069 views 1 this week
no commentswrite comment
1 2 3 4 5
please rate
add to favorites
launch autoscroll
font size
0
reset
how to read this tab
guitar tuner
Autoscroll
slow
fast
+/-
esc
set tempo
stop
Help us to improve Ultimate-Guitar.com Take our survey!
×
Author
Difficulty
Capo
intermediate
4th fret
-------------------------------------------------------------------------------
                             Belly Full - Dave Matthews Band
-------------------------------------------------------------------------------
Tabbed by: M Silvey
E-mail: ATiger579304@gmail.com

Dave plays this on a ukelele.  I need to get one of those. :)

This is a great starter song.  Capo is not required, but it helps if you
are listening to the song to learn it.  It is basically strumming with a 
bass line.  I use my thumb for the bass, and pointer for the strum.
One day I will try to use a pick.  Nahhh. Probably Not! Enjoy!

Tuning: Standard (Capo on 4/chords relative)


Intro
      C 
e|---------------------------------|----------------------------------|
B|-----1---1-1-1--------1---1-1-1--|------1---1-1-1--------1---1-1-1--|
G|-----0---0-0-0--------0---0-0-0--|------0---0-0-0--------0---0-0-0--|
D|-----2---2-2-2--------2---2-2-2--|------2---2-2-2--------2---2-2-2--|
A|--3--3---3-3-3-----3--3---3-3-3--|---3--3---3-3-3-----3--3---3-3-3--|
E|---------------------------------|----------------------------------|

                          F
e|------------------------1---1-1-1--|-----1--1-1-1--------1---1-1-1--|
B|-----1---1-1-1----------1---1-1-1--|-----1--1-1-1--------1---1-1-1--|
G|-----0---0-0-0----------2---2-2-2--|-----2--2-2-2--------2---2-2-2--|
D|-----2---2-2-2----------3---3-3-3--|-----3--3-3-3--------3---3-3-3--|
A|--3--3---3-3-3---2-3----3---3-3-3--|-----3--3-3-3--------3---3-3-3--|
E|---------------------1--1---1-1-1--|--1--1--1-1-1-----1--1---1-1-1--|
      Ohhhhhhh     my love                                        If I

         G
e|-------3---3-3-3--------3---3-3-3--|-----3---3-3-3-------3---3-3-3--|
B|-------3---3-3-3--------3---3-3-3--|-----3---3-3-3-------3---3-3-3--|
G|---h---0---0-0-0--------0---0-0-0--|-----0---0-0-0-------0---0-0-0--|
D|-0-2-0-0---0-0-0--3-2-0-0---0-0-0--|-----0---0-0-0-------0---0-0-0--|
A|-------2---2-2-2--------2---2-2-2--|-----2---2-2-2-------2---2-2-2--|
E|-------3---3-3-3--------3---3-3-3--|--3--3---3-3-3----3--3---3-3-3--|
had my way, then all your dreams

        C                 F
e|------------------------1---1-1-1--|-----1---1-1-1-------1---1-1-1--|
B|------1---1-1-1---------1---1-1-1--|-----1---1-1-1-------1---1-1-1--|
G|------0---0-0-0---------2---2-2-2--|-----2---2-2-2-------2---2-2-2--|
D|------2---2-2-2---------3---3-3-3--|-----3---3-3-3-------3---3-3-3--|
A|--2-3-3---3-3-3--2-3----3---3-3-3--|-----3---3-3-3-------3---3-3-3--|
E|---------------------1--1---1-1-1--|--1--1---1-1-1----1--1---1-1-1--|
would come true. Oh my love                                        All

         G
e|-------3---3-3-3--------3---3-3-3--|-----3---3-3-3-------3---3-3-3--|
B|-------3---3-3-3--------3---3-3-3--|-----3---3-3-3-------3---3-3-3--|
G|---h---0---0-0-0--------0---0-0-0--|-----0---0-0-0-------0---0-0-0--|
D|-0-2-0-0---0-0-0--3-2-0-0---0-0-0--|-----0---0-0-0-------0---0-0-0--|
A|-------2---2-2-2--------2---2-2-2--|-----2---2-2-2-------2---2-2-2--|
E|-------3---3-3-3--------3---3-3-3--|--3--3---3-3-3----3--3---3-3-3--|
your dreams, and all the world

        C                 F
e|------------------------1---1-1-1--|-----1---1-1-1-------1---1-1-1--|
B|------1---1-1-1---------1---1-1-1--|-----1---1-1-1-------1---1-1-1--|
G|------0---0-0-0---------2---2-2-2--|-----2---2-2-2-------2---2-2-2--|
D|------2---2-2-2---------3---3-3-3--|-----3---3-3-3-------3---3-3-3--|
A|--2-3-3---3-3-3--2-3----3---3-3-3--|-----3---3-3-3-------3---3-3-3--|
E|---------------------1--1---1-1-1--|--1--1---1-1-1----1--1---1-1-1--|
Just for you.     Oh my love                                      If I

         G
e|-------3---3-3-3-------3---3-3-3--|-----3---3-3-3-------3---3-3-3--|
B|-------3---3-3-3-------3---3-3-3--|-----3---3-3-3-------3---3-3-3--|
G|-------0---0-0-0-------0---0-0-0--|-----0---0-0-0-------0---0-0-0--|
D|-3-2-0-0---0-0-0-------0---0-0-0--|-----0---0-0-0-------0---0-0-0--|
A|-------2---2-2-2-------2---2-2-2--|-----2---2-2-2-------2---2-2-2--|
E|-------3---3-3-3----3--3---3-3-3--|--3--3---3-3-3----3--3---3-3-3--|
had my way

         C
e|----------------------------------|--------------------------------|
B|-------1---1-1-1-------1---1-1-1--|-----1---1-1-1-------1---1-1-1--|
G|-------0---0-0-0-------0---0-0-0--|-----0---0-0-0-------0---0-0-0--|
D|-------2---2-2-2-------2---2-2-2--|-----2---2-2-2-------2---2-2-2--|
A|--2-3--3---3-3-3----3--3---3-3-3--|--3--3---3-3-3----3--3---3-3-3--|
E|----------------------------------|--------------------------------|
This for you.

        Am                               Em                 G
e|---------------------------------|------------------------3---3-3-3--|
B|------1---1-1-1-------1---1-1-1--|------------------------3---3-3-3--|
G|------2---2-2-2-------2---2-2-2--|-----0---0-0-0----------0---0-0-0--|
D|------2---2-2-2-------2---2-2-2--|-----2---2-2-2----------0---0-0-0--|
A|--0---0---0-0-0----0--0---0-0-0--|-----2---2-2-2----------2---2-2-2--|
E|---------------------------------|--0--0---0-0-0---0-1-3--3---3-3-3--|
Spread yourself across my lips,   and I spoon you in       The sweetest

        G                C                Cmaj9             Am
e|------3---3-3-3-------------------|----------------------------------|
B|------3---3-3-3--------1---1-1-1--|-----1---1-1-1---------1---1-1-1--|
G|------0---0-0-0--------0---0-0-0--|-----0---0-0-0---------2---2-2-2--|
D|------0---0-0-0--------2---2-2-2--|-----0---0-0-0---------2---2-2-2--|
A|------2---2-2-2-----3--3---3-3-3--|--2--2---2-2-2------0--0---0-0-0--|
E|--3---3---3-3-3-------------------|----------------------------------|
thing in all the world.  Ohhhh,      I want more.     There is no place

        Am                 Em                  G
e|------------------------------------|--------3---3-3-3-------3---3-3-3--|
B|------1---1-1-1---------------------|--------3---3-3-3-------3---3-3-3--|
G|------2---2-2-2----------0---0-0-0--|--------0---0-0-0-------0---0-0-0--|
D|------2---2-2-2----------2---2-2-2--|--------0---0-0-0-------0---0-0-0--|
A|---0--0---0-0-0----------2---2-2-2--|--------2---2-2-2-------2---2-2-2--|
E|---------------------0---0---0-0-0--|-0-1-3--3---3-3-3----3--3---3-3-3--|
I'd rather be       than here with you.    Under the sun or pouring rain  

                           C                   F
e|------3---3-3-3---------------------|--------1---1-1-1-------1---1-1-1--|
B|------3---3-3-3----------1---1-1-1--|--------1---1-1-1-------1---1-1-1--|
G|------0---0-0-0----------0---0-0-0--|--------2---2-2-2-------2---2-2-2--|
D|------0---0-0-0----------2---2-2-2--|--------3---3-3-3-------3---3-3-3--|
A|------2---2-2-2------2-3-3---3-3-3--|-2-3----3---3-3-3-------3---3-3-3--|
E|---3--3---3-3-3----3----------------|-----1--1---1-1-1----1--1---1-1-1--|
All of the sky        for you           Oh my love                    If I

         G
e|-------3---3-3-3--------3---3-3-3--|------3---3--3----------3---3--3----|
B|-------3---3-3-3--------3---3-3-3--|------3---3--3----------3---3--3----|
G|-------0---0-0-0--------0---0-0-0--|------0---0--0----------0---0--0----|
D|-3-2-0-0---0-0-0--------0---0-0-0--|------0---0--0----------0---0--0----|
A|-------2---2-2-2--------2---2-2-2--|------2---2--2----------2---2--2----|
E|-------3---3-3-3-----3--3---3-3-3--|---3--3---3--3-------3--3---3--3----|
had my way

         C                  F
e|--------------------------1---1-1-1--|------1---1-1-1-------1---1-1-1---|
B|-------1---1-1-1----------1---1-1-1--|------1---1-1-1-------1---1-1-1---|
G|-------0---0-0-0----------2---2-2-2--|------2---2-2-2-------2---2-2-2---|
D|-------2---2-2-2----------3---3-3-3--|------3---3-3-3-------3---3-3-3---|
A|--2-3--3---3-3-3---2-3----3---3-3-3--|------3---3-3-3-------3---3-3-3---|
E|-----------------------1--1---1-1-1--|---1--1---1-1-1----1--1---1-1-1---|
This for you.      Oh my love                                    Make your 

         G
e|-------3---3-3-3----------3---3-3-3--|------3---3-3-3-------3---3-3-3---|
B|-------3---3-3-3----------3---3-3-3--|------3---3-3-3-------3---3-3-3---|
G|---h---0---0-0-0----------0---0-0-0--|------0---0-0-0-------0---0-0-0---|
D|-0-2-0-0---0-0-0---3-2-0--0---0-0-0--|------0---0-0-0-------0---0-0-0---|
A|-------2---2-2-2----------2---2-2-2--|------2---2-2-2-------2---2-2-2---|
E|-------3---3-3-3----------3---3-3-3--|---3--3---3-3-3----3--3---3-3-3---|
belly full, and all your dreams

         C
e|-------------------------------------|----------------------------------|
B|-------1---1-1-1----------1---1-1-1--|------1---1-1-1-------1-----------|
G|-------0---0-0-0----------0---0-0-0--|------0---0-0-0-------0-----------|
D|-------2---2-2-2----------2---2-2-2--|------2---2-2-2-------2-----------|
A|--2-3--3---3-3-3------3---3---3-3-3--|---3--3---3-3-3-------3-----------|
E|-------------------------------------|----------------------------------|
Come true.

************************************

| h   hammer-on
| x   Mute note

************************************
Suggest correction new What's this?
You can suggest a correction to this tab. Community and Mods will review your correction and vote to approve or reject it.
comments
We did not receive enough feedback on this tab! Please rate:
print report bad tab
1 2 3 4 5
guest
You may want to rate the tab now too:
select rating
Please do not post tabs as comments. Select "correction" instead!