Oops, an error
Loading. Please wait.

Belly Full Tab

version 2
version 2

Whole song

Video

1,884 views 9 this week
no commentswrite comment
1 2 3 4 5
please rate
add to favorites
launch autoscroll
font size
0
reset
how to read this tab
guitar tuner
Tab Pro tools
  • play this tab
  • loop segment
  • change instrument
  • show fretboard
  • metronome
×
Best way to learn
"Belly Full"
Autoscroll
slow
fast
+/-
esc
set tempo
stop
Contributor
Difficulty
Capo
intermediate
2nd fret
-------------------------------------------------------------------------------
                             Belly Full - Dave Matthews Band
-------------------------------------------------------------------------------
Tabbed by: sethdhanson
E-mail: 

Tuning: Standard - Capo 2nd Fret (all work relative to capo)
Note: Play with a nice chunky muted style so that the individual notes are more
      prominent.     
      Only chord and note changes are shown:

Intro/Verse:
                                                             *
e|----x---------------3---------------------------------------------------------|
B|----3--------------(3)-----2--------------------------------2-----------------|
G|----2--------------(0)-----2--------------------------------2-----------------|
D|--0-0--------------(0)-----2---2---4---2-------5---4---2----2-----------------|
A|----------4---5-----2------0---------------0----------------0---4---5---------|
E|------------------3-3---------------------------------------------------------|
                                                                                 Repeat

Form the A chord and let it ring as you climb up and down the D string 
Add slides and hammers where you dig em.

. . . if I had my way . . .
        
e|--------------------------------|
B|---------------2----------------|
G|---------------2----------------|
D|---5---4---2---2----------------|
A|---------------0----------------|
E|--------------------------------|


Chorus:

The timing here can be awkward - especially with the lyrics

e|----------------------------------|
B|--------------------2------3------|
G|------4-------------2------2------|
D|------4------2------2------0------|
A|------2------2------0---------4---|
E|-------------0--------------------|

e|---------------------------------------------------|
B|-------------------------2-------------------------|
G|------4------------------2-------------------------|
D|------4------2-----------2-------------------------|
A|------2------2-------0---0---4---5-----------------|
E|-------------0---3---------------------------------|
                                                               back to verse

Oh my love
If I had my way then all your dreams
Would come true
Oh my love
All your dreams and all the world
Just for you
Oh my love
If I had my way
This for you
Spread yourself across my lips
And I spoon you in
The sweetest thing in all the world
Oh I want more
There is no place I'd rather be than here with you
Under the sun, the pouring rain, all the sky for you

Oh my love
If I had my way
This for you
Oh my love
Make your belly full
And all your dreams to come true



tabbed from http://www.youtube.com/watch?v=hDFllPqkiHM
comments
We did not receive enough feedback on this tab! Please rate:
print report bad tab
1 2 3 4 5
I want to post or [tab]
guest
You may want to rate the tab now too:
select rating
Please do not post tabs as comments. Select "correction" instead!