Oops, an error
Loading. Please wait.

Big Eyed Fish Chords

version 1
version 1

Whole song

Interactive

25,716 views 27 this week
3 commentsread comments
1 2 3 4 5
accurate
x 3
add to favorites
launch autoscroll
font size
0
reset
transpose
0
reset
simplify chords
display chords
guitar tuner
Autoscroll
slow
fast
+/-
esc
set tempo
stop
Help us to improve Ultimate-Guitar.com Take our survey!
×
Dave Matthews - Big Eyed Fish

Submitted by Ian C.T. vom Saal
Questions,Comments, Etc . . . ianvomsaal@hotmail.com

[Intros'/Verses'] e-------0---------------------------
                  b-------0---------------------0-----
                  g-------9---------------------4-----
                  d-------9\----5-5-----5-5\----4----- 
                  a---7---7\---3-3-----2-2------2-----
                  E---0---0\---0-0-----0-0------0-----

[Verse]
Look at this big - eyed fish swimming in the sea oh
How it dreams to be a bird swoop and diving through the breeze
So one day caught a big old wave up on to the beach
Now heÕs dead you see beneath the sea is where a fish should be
----------------------------------------------
[Chorus]  [Em]    [C]    [G]    [Bm]

[Em]But oh [C]God
[G]Under the we[Bm]ight of life
[Em]Things [C]seem [G]brighter on the [Bm]other side
-------------------------------------------------------
[Verse]
You see this crazy man decided not to breathe
He turned red and blue - purple, colorful indeed
No matter how his friends begged and pleaded the man would not concede
And now heÕs dead you see the silly man should know you got to breathe
--------------------------------------------------------------------------------
[Chorus]
But oh God
Under the weight of life
Things seem brighter on the other side

Oh God
Under the weight of life
Things seem so much better on the other side
[G]  [C]  [G]  [D/F#] - [Em] [C] [G] [D/F#]
No way, no way
No way out of here
--------------------------------------------------------------------
[Verse]
You see the little monkey sitting up in his monkey tree
One day decided to climb down and run off to the city
But look at him now lost tired living in the street
As good as dead you see what a monkey does - stay up your tree
---------------------------------------------------------------------
[Chorus]
But oh God
Under the weight of life
Things seem brighter on the other side

Oh God
Under the weight of life
Things seem so much better on the other side

No way, no way, no way
No way out of here
Suggest correction
Give kudos to tab author, rate the tab!
1 2 3 4 5
comments
print report bad tab
3 comments total.
0 reply
Mace Window 30 wrote on January 24 2003, 12:00 am

Great tab, man. This is an awesome song. You did a better job than all the other people. Thanks for tabbing this song. Just one thing, I think it's a D chord in the chorus instead of Bm, but I could be wrong.
And the chords for when it fades into Bartender:
e|--2---3---2---3-------2---------
B|--3---3---3---3-------3---------
G|--2---2---2---2-------2---------
D|--0---0---0---0-------0---------
A|--------------------------------
E|--------------------------------

0 reply
Mace Window 30 wrote on January 24 2003, 12:00 am

Oh yeah and instead of stretching to do:

e|--------------------------------------
B|--------------------------------------
G|--------------------------------------
D|---5----------------------------------
A|---2----------------------------------
E|--------------------------------------

You can do:
e|--------------------------------------
B|--------------------------------------
G|----0---------------------------------
D|----x---------------------------------
A|----2---------------------------------
E|--------------------------------------

0 reply
IanvomSaal 499 wrote on May 25 2003, 12:00 am

No, I believe it's correct as it stands.

guest
You may want to rate the tab now too:
select rating
Please do not post tabs as comments. Select "correction" instead!