Oops, an error
Loading. Please wait.

Big Eyed Fish Tab

version 1
version 1

Whole song

Interactive

55,423 views 24 this week
3 commentsread comments
1 2 3 4 5
x 55
add to favorites
launch autoscroll
font size
0
reset
how to read this tab
guitar tuner
Autoscroll
slow
fast
+/-
esc
set tempo
stop
Help us to improve Ultimate-Guitar.com Take our survey!
×
Author
Tabbers playing skills
advanced ++
Dave Matthews - Big Eyed Fish
Transcribed from 'Busted Stuff'
Transcribed by: Ian C.T. vom Saal (August 28,2003)
Questions,Comments, Etc . . . ianvomsaal@yahoo.com


[Intros'/Verses'] e-------0---------------------------|
                  b-------0---------------------0-----|
                  g-------9-----5-5-----0-0-----4-----|
                  d-------9\----5-5\----5-5\----4-----|
                  a---7---7\---3-3-----2-2------2-----|
                  E---0---0\---0-0-----0-0------0-----|

[Verse]
Look at this big eyed fish swimming in the sea oh
How it dreams to be a bird swoop and diving through the breeze
So one day caught a big old wave up on to the beach
Now he's dead you see beneath the sea is where a fish should be
----------------------------------------------------------------
[Chorus]  [Em]    [C]    [G]    [Bm]

[Em]But oh [C]God
[G]Under the we[Bm]ight of life
[Em]Things [C]seem [G]brighter on the [Bm]other side
-------------------------------------------------------
[Verse]
You see this crazy man decided not to breathe
He turned red and blue - purple, colorful indeed
No matter how his friends begged and pleaded the man would not concede
And now he's dead you see the silly man should know you got to breathe
-----------------------------------------------------------------------
[Chorus]
[Em]Oh [C]God
[G]Under the we[Bm]ight of life
[Em]Things [C]seem [G]brighter on the [Bm]other side

[Em]Oh [C]God
[G]Under the we[Bm]ight of life
[Em]Things [C]seem [G]brighter on the [Bm]other side

[G]Nooo [C]waayyyy . . . [G]No [C]waayyy . . .
[G]Nooo [C]waayyy . . . [D/F#]out . . . [Dsus/F#]of  . . .
[Em]here [C] [G] [Bm]  - [Em] [C] [G] [Bm]
-------------------------------------------------------------
[Verse]
You see the little monkey sitting up in his monkey tree
One day decided to climb down and run off to the city
But look at him now lost tired living in the street
As good as dead you see what a monkey does stay up your tree
-------------------------------------------------------------
[Chorus]
[Em]Oh [C]God
[G]Under the we[Bm]ight of life
[Em]Things [C]seem [G]brighter on the [Bm]other side

[Em]Oh [C]God
[G]Under the we[Bm]ight of life
[Em]Things [C]seem [G]brighter on the [Bm]other side

[G]Nooo [C]waayyyy . . . [G]No [C]waayyy . . .
[G]Nooo [C]waayyy . . . [D/F#]out . . . [Dsus/F#]of  . . .
[Em]here [C] [G] [Bm]  - [Em] [C] [G] [Bm]
-------------------------------------------------------------
D/F#=200230          C=032010
Dsus/F#=200233       Bm=X24432
Em=022000            G=320033
 
Suggest correction
comments
print report bad tab
3 comments total.
-2 reply
rhcpfan27 117 Aug 05, 2008 03:56 PM

the intro should be this

[Intros'/Verses'] e-------7----3-3-----3-3-----2-----|
b-------x----x-x-----x-x-----x-----|
g-------x----x-x-----x-x-----x-----|
d-------9\---5-5\----5-5\----4-----|
a---7---7\---3-3-----2-2-----2-----|
E---0---0\---0-0-----0-0-----0-----|

those top notes fill it out really nicely. other than that nice job

-1 reply
rhcpfan27 117 Aug 05, 2008 03:57 PM

e-------7----3-3-----3-3-----2-----|
b-------x----x-x-----x-x-----x-----|
g-------x----x-x-----x-x-----x-----|
d-------9\---5-5\----5-5\----4-----|
a---7---7\---3-3-----2-2-----2-----|
E---0---0\---0-0-----0-0-----0-----|

sorry messed up the layout of the first post

+1 reply
AllisonsGuitar 10 Jul 23, 2010 07:57 PM

really great tab. all of your tabs are great. 5-stars *****

guest
You may want to rate the tab now too:
select rating
Wanna post a correction for this tab? Suggest correction