Oops, an error
Loading. Please wait.

Bismarck Tab

22 views 1 this week
no commentswrite comment
1 2 3 4 5
3 more votes to show rating
add to favorites
launch autoscroll
font size
0
reset
how to read this tab
guitar tuner
Autoscroll
slow
fast
+/-
esc
set tempo
stop
Help us to improve Ultimate-Guitar.com Take our survey!
×
Author
Difficulty
intermediate
Dave Matthews Band
Bismarck
(Unreleased new song, debuted in 2016)

Tuning: Standard

[Intro/Verse]
e|-----------------------------------|
B|-----------------------------------|
G|-----------------------------------|
D|----4---5---5---5---5---5---5---5--| x3
A|--5---5---5---5--------------------|
E|------------------3---3---3---3----|

e|------------------------|
B|------------------------|
G|------------------------| 
D|----4---5---5---5-------| 
A|--5---5---5-------------| 
E|--------------3---/7-5--|

[Pre-Chorus]
("Old bus station")
e|---------------------------------|
B|---------------------------------|
G|--6---6--(2)--x---7---6---4---4--| 
D|--7---7---4---2---7---7---4---4--| x2 
A|--x---x---4---2---5---4---2---2--| 
E|--5---4---2---0------------------|

e|---------|
B|---------|
G|--4---7--|
D|--2---5--|
A|--x---x--| 
E|--4---7--|

[Chorus/Jam]
("It's strange to feel so light")
e|-----------------| 
B|-----------------| 
G|--9---9---9---9--| 
D|--7---7---7---7--| x4
A|--x---x---5---5--| 
E|--5---9----------|

[Post-Chorus] 
("Hold On")
e|---------| 
B|---------| 
G|--7---6--| 
D|--x---x--| 
A|--5---4--| 
E|--6---5--|

[Ending]
e|-----------------------------------|
B|-----------------------------------|
G|-----------------------------------|
D|----4---5---5---5---5---5---5---5--| x3
A|--5---5---5---5--------------------|
E|------------------3---3---3---3----|

e|----------------------------|
B|----------------------------|
G|----------------------------| 
D|----4---5---5---5-----------| 
A|--5---5---5-----------------| 
E|--------------3---/7-7-5-5--|

Notes: Dave fingerpicks this entire song



************************************

| /    Slide up
| x    Dead note
| (n)  Ghost note 

************************************
Suggest correction
Give kudos to tab author, rate the tab!
1 2 3 4 5
comments
print report bad tab
guest
You may want to rate the tab now too:
select rating
Wanna post a correction for this tab? Suggest correction