Oops, an error
Loading. Please wait.

Break Free Tab

version 1
version 1

Whole song

7,721 views 3 this week
no commentswrite comment
1 2 3 4 5
3 more votes to show rating
add to favorites
launch autoscroll
font size
0
reset
how to read this tab
guitar tuner
Autoscroll
slow
fast
+/-
esc
set tempo
stop
This song is in Drop D. 

One of the greatest new dave songs. Definitely hoping it's on next album!!!

This is just the jist of it...
Intro
E|-|----------------------------------------------------------------|-|
B|-|----------------------------------------------------------------|-|
G|-|----------------------------------------------------------------|-|
D|-|----------------------------------------------------------------|-|
A|-|------------5s4-----------5s4--0----------3s4-2--------1s2-0----|-|
e|-|--0--0-0--------4--4-4-----------2--2-2---------2--2-2----------|-|
    
Repeat several times

Next Part

E|-|--7-----6-----5-----4-------------------|-|
B|-|--7-----6-----5-----4-------------------|-|
G|-|--7-----6-----5-----4-------------------|-|
D|-|--7-----6-----5-----4-------------------|-|
A|-|--7-----6-----5-----4-------------------|-|
e|-|--7-----6-----5-----4-------------------|-|

Not sure about the fingering on the transition, but you can figure it out.

Ending

E|-|-----------------|-|
B|-|-----------------|-|
G|-|-----------------|-|
D|-|-4----7----9-----|-|
A|-|-----------------|-|
e|-|-0----4----5-----|-|


Hope this helps you guys out...






Suggest correction
Give kudos to tab author, rate the tab!
1 2 3 4 5
comments
print report bad tab
guest
You may want to rate the tab now too:
select rating
Wanna post a correction for this tab? Suggest correction