Oops, an error
Loading. Please wait.

Break Free Tab

version 2
version 2

Whole song

5,295 views 3 this week
1 commentread comment
1 2 3 4 5
1 last vote to show rating
add to favorites
launch autoscroll
font size
0
reset
how to read this tab
guitar tuner
×
Best way to learn
"Break Free"
Autoscroll
slow
fast
+/-
esc
set tempo
stop
Author
Verse
E:-----------------------------------------------------|
B:-----------------------------------------------------|
G:-----------------------------------------------------|
D:-----------------------------------------------------|
A:---------------5-4-------------4h5p4----4------------|
D:-----0--0-0-0--------4--4-4-4---------7--------------|

E:-----------------------------------------------------|
B:-----------------------------------------------------|
G:-----------------------------------------------------|
D:-----------------------------------------------------|
A:---------------4-2------------2-0--------------------|
D:-----2--2-2-2-------2--2-2-2-------------------------|


"I'll drink your poison"
E:-----------------------------------------------------|
B:-----------------------------------------------------|
G:-----------------------------------------------------|
D:-----------------------------------------------------|
A:-----4---2---2---0-----------------------------------|
D:-----7---6---5---4-----------------------------------|


Sorry but, I don't know the bridge.
I'll try and figure out the lyrics later for those of you
who want them. Any problems comment me. good luck!
Suggest correction
Give kudos to tab author, rate the tab!
1 2 3 4 5
comments
print report bad tab
1 comment total.
0 reply
apollo343musi1 10 Feb 13, 2017 09:49 PM

for the chorus its a little easier to play it like this

-----------------
----------------
---------------
-11--9---9---7---
----------------
-7---6---5---4---

guest
You may want to rate the tab now too:
select rating
Wanna post a correction for this tab? Suggest correction