Oops, an error
Loading. Please wait.

Busted Stuff Tab

version 1
version 1

Whole song

Interactive

17,665 views 21 this week
no commentswrite comment
1 2 3 4 5
x 4
add to favorites
launch autoscroll
font size
0
reset
how to read this tab
guitar tuner
Autoscroll
slow
fast
+/-
esc
set tempo
stop
Help us to improve Ultimate-Guitar.com Take our survey!
×
Author
Play this and listen to the song for the rhythm and you'll be like dave

Intro and verse
E|-|------------|------------|---------------------------------------|
B|-|--1---1-----|--1---1-----|--1---1--------------------------------|
G|-|--0---0--4--|--0---0-----|--0---2---------------4-4--------------|
D|-|--0h2p0--5--|--0h2p0---4-|--0h2p0---2--4--2--4--5-5--------------|
A|-|--3---3--5--|--3---3---5-|--3---3---3--5--3--5--5-5--------------|
E|-|---------3--|----------5-|----------5--5--5--2--3-3--------------|

 you Know she's goanna leave my 
               broken heart behind     I dig what she's giving up
chorus
E|-|------------|----------------|--------|-------------------------|
B|-|------------|----------------|--------|-------------------------|
G|-|------------|----------------|--------|-----4-------------------|
D|-|--4----2----|--5----4—4h5p4--|--4-2---|---4-5-------------------|
A|-|--5----3----|--5----5-------5|--5-3---|---5-5-------------------|
E|-|--5----5----|--3----2--------|--5-5---|---2-3-------------------|

Leading in to the end of the chorus      Yeah yeeeah, she's the one for me
E|-|------------|----------------|----------|-------------------------|
B|-|------------|----------------|----------|-------------------------|
G|-|------------|----------------|----------|---7---------------------|
D|-|--4----2----|--5----4—4h5p4--|--4---2---|---0---------------------|
A|-|--5----3----|--5----5-------5|--5---3---|---x---------------------|
E|-|--5----5----|--3----2--------|--5---5---|---6---------------------|

---------------------------------
spend your living days well;)
Suggest correction
comments
print report bad tab
guest
You may want to rate the tab now too:
select rating
Wanna post a correction for this tab? Suggest correction