Oops, an error
Loading. Please wait.

Cant Stop Bass Tab

2,722 views 3 this week
1 commentread comment
1 2 3 4 5
2 more votes to show rating
add to favorites
launch autoscroll
font size
0
reset
guitar tuner
Autoscroll
slow
fast
+/-
esc
set tempo
stop
Help us to improve Ultimate-Guitar.com Take our survey!
×
Author
Difficulty
intermediate
-------------------------------------------------------------------------------
			     Can't Stop - Dave Matthews Band
-------------------------------------------------------------------------------

Tabbed By : Andrew O'Donnell
e-mail: aodonne1@nd.edu

Tuning:EADG Standard

This is a new song that the band has been playing throughout their Summer 2006 tour.
 I got a hold of a recording and I was obsessed with the bassline so I've tabbed it out 
others to enjoy:

Main riff
G|--------------------------------------|---10--11-------------------------------|
D|----------------10--12-10------10--12-|-------------12--10--12-10------10--12--|
A|------12--12---------------12---------|---------------------------12-----------|
E|-10-----------------------------------|----------------------------------------|

"I'm like a junkie for you baby..."
G|-----------------|
D|-----------------|
A|-----------------|
E|-8-8-8-8-8-8-8-8-|


"So hungry..."
G|----------------|----------------|----------------|----------------|
D|----------------|----------------|----------------|----------------|
A|-2-2-2-2-2-2-2-2|-2-2-2-2-2------|----------------|---------------2|
E|----------------|-----------5-5-3|-3-3-3-3-3-3-3-3|-3-3-3-3-3-3-3--|
                                                                     "I surrender..."
G|----------------|----------------|----------------|----------------|----------------|
D|----------------|----------------|----------------|----------------|----------------|
A|-5-5-5-5-4-4-4-4|-2-2-2-2--------|----------------|---------------2|-3-3-3-3-3-3-3-3|
E|----------------|---------5-5-5-5|-3-3-3-3-3-3-3-3|-3-3-3-3-3-3-3--|----------------|
     Throw in some octave fills
Suggest correction
Give kudos to tab author, rate the tab!
1 2 3 4 5
comments
print report bad tab
1 comment total.
0 reply
Smoothrider_41 70 Aug 15, 2006 02:25 AM

its kind of like it, but not exactly right

guest
You may want to rate the tab now too:
select rating
Wanna post a correction for this tab? Suggest correction