Oops, an error
Loading. Please wait.

Cornbread Bass Tab

version 1
version 1

Whole song

Interactive

1,194 views 1 this week
no commentswrite comment
1 2 3 4 5
please rate
add to favorites
launch autoscroll
font size
0
reset
guitar tuner
Tab Pro tools
  • play this tab
  • loop segment
  • change instrument
  • show fretboard
  • metronome
Autoscroll
slow
fast
+/-
esc
set tempo
stop
Difficulty
novice
Song: Cornbread
Artist: Dave Matthews Band
Album: Big Whiskey and the Groogrux King
Tabbed by Philip

Awsome groove!

Vers:

G|-------------------|--------------------|
D|-------------------|--------------------|
A|------------32-----|---------------3-3--|
E|--3---1/3-3--------|--3---1/3--3-3------|

Improvise like hell! Do lot’s of slides.

When Dave is scat-singing, the rest of the band is jamming to a G-major. In the live 
you can hear Lessard do some really cool stuff with fifths and octaves.

Example:

G|--1919--21-23----|
D|--1717--19-21----|
A|-----------------|
E|-----------------|

This is a YouTube-link that could give you an idea of what i am talking about ;)

  http://www.youtube.com/watch?v=rUGhuzsLN_E


Chorus:

	A		F		G		G
G|----------------------------|-------------------7-4----|
D|--------7-5----------3------|--------5--------------5--|
A|------7-----7------3---3----|------5---5---------------|
E|--5-5----------1-1-------1--|--3-3-------3--3-3--------|

When i play the chorus i play around with the octaves, third and fifthts.
Keep it simple and smooth.


Bridge:

G|--------------------|------------------|
D|-------5-------3----|----2-------------|
A|--6--6---5---5---4--|--4---3---3-4-5---|
E|--------------------|------------------|

Or

G|-------8-------7----|----6-------------|
D|--------------------|------------------|
A|--6--6---5---5---4--|--4---3---3-4-5---|
E|--------------------|------------------|
comments
We did not receive enough feedback on this tab! Please rate:
print report bad tab
1 2 3 4 5
I want to post or [tab]
guest
You may want to rate the tab now too:
select rating
Please do not post tabs as comments. Select "correction" instead!