Oops, an error
Loading. Please wait.

Crash Into Me Tab

version 3
version 3
21,143 views 12 this week
1 commentread comment
1 2 3 4 5
accurate
x 4
add to favorites
launch autoscroll
font size
0
reset
how to read this tab
guitar tuner
Autoscroll
slow
fast
+/-
esc
set tempo
stop
Help us to improve Ultimate-Guitar.com Take our survey!
×
T1: Jason Swantek, swantejj@muohio.edu, Dave Matthews, Crash Into Me,
 01/17/99 

 S1: This was the release of the Live album by Dave Matthews and Tim
 Reynolds...Live at Luther College, Song: Crash Into Me 
 By Dave Matthews Band 
 Tabbed by: Jason Swantek (Swanee9@aol.com, swantejj@muohio.edu) 


 INTRO AND VERSES 

 E--------0-0-0-0----0-0-0---(0)-0-0-0-0----0-0-0----0-0-0-0----0-0-0----(0)-0-0-0-0-----0-0-0--
 B--------5-5-5-5----5-5-5---(5)-5-5-5-5----5-5-5----5-5-5-5----5-5-5----(5)-5-5-5-5-----5-5-5--
 G--------4-4-4-4----4-4-4---(4)-4-4-4-4----4-4-4----4-4-4-4----4-4-4----(4)-4-4-4-4-----4-4-4--
 D--------2-2-2-2----2-2-2---(x)-x-x-x-x-------------2-2-2-2----2-2-2----(x)-x-x-x-x-----2-2-2--
 A---4-------------0-------2----------------------------------0--------2------------------------
 E----------------------------------------0--------4----------------------------------0---------




 "CRASH into me" parts 

 1) CRASH into me... 
 2) CRASH in- to me yeah.... 
 (finishing off verse) 
 E-------0------------------------------------0----------- 
 A-------5------------------------------------0-------3--- 
 G-------4------------------------------------1-------2--- 
 D--------------------------------------------2-------0--- 
 A-----4--------------------------0-----2-----2-------x--- 
 E--------------------------4-----------------0-------2--- 



 "In a boy's dream..." 

 GUITAR 1 
 E--------0-0-0-0----0-0-0--...----------------0-0-0---(0)-0-0-0-0----0-0-0----0-0-0-0----0-0-0----(0)-0-0-0-0-----0-0-0--

 B--------5-5-5-5----5-5-5--...----------------5-5-5---(5)-5-5-5-5----5-5-5----5-5-5-5----5-5-5----(5)-5-5-5-5-----5-5-5--

 G--------4-4-4-4----4-4-4--...----------------4-4-4---(4)-4-4-4-4----4-4-4----4-4-4-4----4-4-4----(4)-4-4-4-4-----4-4-4--

 D--------2-2-2-2----2-2-2--...----------------2-2-2---(x)-x-x-x-x-------------2-2-2-2----2-2-2----(x)-x-x-x-x-----2-2-2--

 A---4-------------4--------...--------------0-------2----------------------------------0--------2------------------------

 E--------------------------...-------------------------------------0--------4----------------------------------0---------



 GUITAR 2 
 E--0-0-0-2--0--0-0-0-2--0--0-0-0-4--0--0-0-0-4---- 
 A--5-5-5-5--5--5-5-5-5--5--5-5-5-5--5--5-5-5-5---- 
 G--4-4-4-4--4--4-4-4-4--4--4-4-4-4--4--4-4-4-4---- 
 D------------------------------------------------- 
 A------------------------------------------------- 
 E------------------------------------------------- 




 When Dave starts singing "Crash into Me" in a high voice at the end of
 the song, continue to play 
 this 

 E--0-0-0-0-----0-0-0----0-0-0-0----0-0-0-0-- 
 A--5-5-5-5-----5-5-5----5-5-5-5----5-5-5-5-- 
 G--4-4-4-4-----4-4-4----4-4-4-4----4-4-4-4-- 
 D------------------------------------------- 
 A------------0---------2-------------------- 
 E-4-------------------------------0--------- 







 You've got your ball, 
 You've got your chain 
 Tied to me tight, tie me up again. 
 Who's got their claws 
 In you, my friend? 
 Into your heart I'd beat again 
 Sweet like candy to my soul 
 Sweet you rock, 
 And sweet you roll 
 Lost for you, I'm so lost for you 

 Oh, and you come crash into me 
 And I come into you 
 I come into you 
 In a boy's dream 
 In a boy's dream 

 And oh, I kiss you just so I know 
 Oh, in your eyes, love, it glows so 
 I'm bare-boned and crazy... for you. 

 Oh, and you come crash into me, yeah 
 Baby, please come crash into me 
 In a boy's dream 
 In a boy's dream 

 Oh, if I've gone overboard 
 Then I'm begging you 
 To forgive me 
 Oh, in my haste 
 When I'm holding you up girl, 
 Close to me 

 And you come crash into me, yeah 
 Baby, and I come into you 
 Oh, hike up your skirt a little more 
 And show the world to me 
 Yeah, hike up your skirt a little more 
 And show your world to me 
 In a boy's dream 
 In a boy's dream 

 I watch you there 
 By the window 
 And I stare at you 
 You wear nothing, but you 
 Wear it so well 
 Tied up and twisted, 
 The way I'd like to be 
 For you, for me, come crash into me 
 Aw yeah, come crash into me, baby 

 Crash into me... 
 Crash into me... 

 You know, well, I'm the king of the castle, 
 You're the dirty rascal, crash into me. 
 Won't you come crash into me, baby... 

 The way you do, the way you do... 
 Oh yes, I see the waves 
 Come and crash into me. 
 Oh yes, I see the waves come and crash into me. 
 Crash into me... 

 Crash into me, baby... 
Suggest correction
What's this?
You can suggest a correction to this tab. Community and Mods will review your correction and vote to approve or reject it.
comments
print report bad tab
1 comment total.
0 reply
Aminor 11 wrote on March 8 2002, 12:00 am

just a little note to all those wanting to learn this song: DO NOT play the 'e' note on the 5th fret('b' string) throughout...the 'b' string is open!!! every tab ive ever seen on the web is wrong! 'b' and the high 'e' strings are played open! anyway, play on and email me at: b.l.harwood@att.net

guest
You may want to rate the tab now too:
select rating
Please do not post tabs as comments. Select "correction" instead!