Oops, an error
Loading. Please wait.

Crush Tab

version 3
version 3

Whole song

Interactive

26,919 views 18 this week
4 commentsread comments
1 2 3 4 5
1 last vote to show rating
add to favorites
launch autoscroll
font size
0
reset
how to read this tab
guitar tuner
Autoscroll
slow
fast
+/-
esc
set tempo
stop
Help us to improve Ultimate-Guitar.com Take our survey!
×
-------------------------------------------------------------------------------
                             Crush - Dave Matthews
-------------------------------------------------------------------------------
Tabbed by:
Email:

Tuning:
Intro/Verse
e|---0--0--0-----------------------------------------------------------------|
B|---3--3--3---3--3-3---2--2--2---------3--3---------------------------------|
G|---4--4--0---2--2-2---2--2--2---4--4--5--5---5--5---5--5-------------------|
D|---4--4--4-----------------------------------5--5---5--5---Repeat----------|
A|---2--2--2-----------------------------------3--3---2--2-------------------|
D|---0--0--0---2--2-2---2--2--2---3--3--5--5---------------------------------|
Pre-Course
"Feel so right..."
e|---------------------------------------------------------------------------|
B|---------------------------------------------------------------------------|
G|--5--5---4--4--4-----------------------------------------------------------|
D|--5--5---2--2--2-----------------------------------------------------------|
A|--3--3---2--2--2-----------------------------------------------------------|
D|---------2--2--2-----------------------------------------------------------|
Course
"Lovely Lady..."
e|---------------------------------------------------------------------------|
B|---------------------------------------------------------------------------|
G|--7--7--7--7-/--9--9--9--9----5--5--5----4--4--4---------------------------|
D|--5--5--5--5-/--9--9--9--9----5--5--5----2--2--2-----Repeat----------------|
A|--5--5--5--5-/--7--7--7--7----3--3--3----2--2--2---------------------------|
D|--5--5--5--5-/--7--7--7--7---------------2--2--2---------------------------|
Bridge
"Crazy iam thinking...."
e|---------------------------------------------------------------------------|
B|---------------------------------------------------------------------------|
G|--12-12-12---12--12--12---12--12---12--12--12------------------------------|
D|--10-10-10---12--12--12---10--10---9---9---9-------------------------------|
A|--8--8--8----10--10--10---10--10---10--10--10------------------------------|
D|---------------------------------------------------------------------------|
Break Down
"Or am I dreamingg...?"
e|---------------------------------------------------------------------------|
B|---------------------------------------------------------------------------|
G|--4--4--4------------------------------------------------------------------|
D|--2--2--2----5-5--3-3--2-2---10-10--9-9--8-8--7-7---5-5--3-3--2-2----------|
A|--2--2--2----5-5--3-3--2-2---10-10--9-9--8-8--7-7---5-5--3-3--2-2----------|
D|--2--2--2----5-5--3-3--2-2---10-10--9-9--8-8--7-7---5-5--3-3--2-2----------|
Then back to chorus...
I got this by watching the aol sessions repeatly, but just pratice and you'll work it 
time to learn dave...but good luck!


| /  slide up
| \  slide down
| h  hammer-on
| p  pull-off
| ~  vibrato
| +  harmonic
| x  Mute note
===============================================================================
Suggest correction
Give kudos to tab author, rate the tab!
1 2 3 4 5
comments
print report bad tab
4 comments total. Showing first comments.
0 reply
Doccface 51 Mar 23, 2007 10:24 PM

Its ok, a few chords totally wrong. And tell everyone its in Dropped D tuning.

where you have the chord 5xx53x, it should be 5x54xx

and where you have the chord 3xx4xx, it should be 3335xx (dont know what you were watching for that one, he rests his middle finger on the 4th fret behind his pinky whilst it plays the 5th fret(of the 3rd string)

So it progresses like this

e|---0--0--0-----------------------------------------------------------------|
B|---3--3--3---3--3-3---2--2--2---------3--3---------------------------------|
G|---4--4--0---2--2-2---2--2--2---5--5--4--4---5--5---5--5-------------------|
D|---4--4--4----------------------3--3--5--5---5--5---5--5---Repeat----------|
A|---2--2--2----------------------3--3--x--x---3--3---2--2-------------------|
D|---0--0--0---2--2-2---2--2--2---3--3--5--5---------------------------------|



0 reply
Doccface 51 Mar 23, 2007 10:27 PM

I meant like this , dodgy copy paste

e|---0--0--0-----------------------------------------------------------------|
B|---3--3--3---3--3-3---2--2--2----------------------------------------------|
G|---4--4--0---2--2-2---2--2--2---4--4--5--5---5--5---5--5-------------------|
D|---4--4--4-----------------------------------5--5---5--5---Repeat----------|
A|---2--2--2-----------------------------------3--3---2--2-------------------|
D|---0--0--0---2--2-2---2--2--2---3--3--5--5---------------------------------|

0 reply
Doccface 51 Mar 23, 2007 10:28 PM

Oooooooooooops, like this i ,mmean, dadgy dadgy copy paste

e|---0--0--0-----------------------------------------------------------------|
B|---3--3--3---3--3-3---2--2--2----------------------------------------------|
G|---4--4--0---2--2-2---2--2--2---5--5--4--4---5--5---5--5-------------------|
D|---4--4--4----------------------3--3--5--5---5--5---5--5---Repeat----------|
A|---2--2--2----------------------3--3--x--x---3--3---2--2-------------------|
D|---0--0--0---2--2-2---2--2--2---3--3--5--5---------------------------------|

guest
You may want to rate the tab now too:
select rating
Wanna post a correction for this tab? Suggest correction