Oops, an error
Loading. Please wait.

Dancing Nancies Tab

version 2
version 2

Whole song

Interactive

13,755 views 9 this week
no commentswrite comment
1 2 3 4 5
excellent!
x 6
add to favorites
launch autoscroll
font size
0
reset
how to read this tab
guitar tuner
Autoscroll
slow
fast
+/-
esc
set tempo
stop
Help us to improve Ultimate-Guitar.com Take our survey!
×
#-----------------------------PLEASE NOTE-------------------------------------#
#This OLGA file is the author's own work and represents their interpretation  #
#of the song. You may only use this file for private study, scholarship, or   #
#research. Remember to view this file in Courier, or some other monospaced    #
#font. See http://www.olga.net/faq/ for more information.                     #
#-----------------------------------------------------------------------------#

Date: Sun, 16 Jul 2000 18:46:50 -0400
From: "Scott Taylor" 
Subject: m/matthews_dave_band/dancing_nancies.tab

"Dancing Nancies"

from Dave Matthews Band
Under the Table and Dreaming


      Could I have been......

Figure 1
---------- -----------
---------- -----------
---------- -----------
--5-----5- --4------4-
---------- -----------
-3-----3-- -2------2--

play Figure 1 - 7 more times


He stands, touch his hair............

strum rhythmically
Figure 2
-------- --------
-------- --------
-4------ -4------
-------- -4------
-2------ --------
-3------ -2------

play Figure 2 - 2 more times
                                resume strumming
---- ----------0-0-0-0-2-- ---- -----
---- ----------0-0-0-0-2-- ---- -----
-4-- ---4-4--4------------ -4-- -4---
---- ---4-4--4------------ -5-- -4---
-2-- --------------------- ---- -----
-3-- -2-2-2--2------------ -3-- -2---

play figure 2 - 3 times

...look up at the sky.
-----
-----
-6---
-7---
-----
-5---


My mouth is open wide.....

Figure 3
----- -----
----- -----
-6--- -6---
-7--- -7---
-5--- -----
----- -5---

play figure 3 - 2 more times

Turn, turn......

---- -----
---- -----
-6-- --3--
-7-- --4--
-5-- -----
---- --2--

Figure 4
----------0-0-0-0-2- ----------0-0-0-0-2-
----------0-0-0-0-2- ----------0-0-0-0-2-
-4--4--4------------ -4--4--4------------
-------------------- -4--4--4------------
-2--2--2------------ --------------------
-3--3--3------------ -2--2--2------------

play Figure 4 - 4 times total

I am who I am, who I am. Well, who am I?..........

      (resume strum)
----- -----
----- -----
-4--- -4---
-5--- -4---
----- -----
-3--- -2---

Figure 2 - 3 times


Sing and dance, I'll play for you tonight.....

Figure 5
------ --2------- -0------ -----
------ --3-(7)--- -2--(5)- -----
-7---- --2-(7)--- -2--(6)- -6---
------ --0-(7)--- -2--(7)- -6---
-5---- ----(5)--- -0--(7)- -----
-7---- ---------- ----(5)- -4---

play Figure 5 again

...look up at the sky.
-----
-----
-6---
-7---
-----
-5---

My mouth is open wide.....

Figure 3
----- -----
----- -----
-6--- -6---
-7--- -7---
-5--- -----
----- -5---

play figure 3 - 2 more times

Turn, turn......

---- -----
---- -----
-6-- --3--
-7-- --4--
-5-- -----
---- --2--

play Figure 4 - 4 times

     resume strum
---- ---- ---- ----
---- ---- ---- ----
-4-- -4-- -4-- -4--
-5-- -4-- ---- -4--
---- ---- -2-- ----
-3-- -2-- -3-- -2--



Dancing Nancy.......

Figure 2 - 5 times - more syncopated strum


Sing and dance, la, la, la, hey.......

Figure 5 - 4 times

...look up at the sky.
-----
-----
-6---
-7---
-----
-5---

My mouth is open wide.....

Figure 3
----- -----
----- -----
-6--- -6---
-7--- -7---
-5--- -----
----- -5---

play figure 3 - 2 more times

Turn, turn......

---- -----
---- -----
-6-- --4--
-7-- --4--
-5-- -----
---- --2--

Figure 4 - 12 times - fades into

Dave - fast strum
-15-------------- -14---------------
-15-------------- -14---------------
-16-------------- -15---------------
-17-------------- -16---------------
----------------- ------------------
----------------- ------------------
Tim
----------------- ------------------
----12----12----- -----11----11-----
--12----12----12- ---11----11----11-
12----12----12--- -11----11----11---
----------------- ------------------
----------------- ------------------


The End


Scott Taylor
School of Music
The Florida State University
http://www.geocities.com/sequenzax
AOL IM: tromba1B
"Eat, drink, and be merry, for tomorrow we shall die." - Epicurus
Suggest correction
comments
print report bad tab
guest
You may want to rate the tab now too:
select rating
Please do not post tabs as comments. Select "correction" instead!