Oops, an error
Loading. Please wait.

Digging A Ditch Tab

26,509 views 18 this week
3 commentsread comments
1 2 3 4 5
excellent!
x 12
add to favorites
launch autoscroll
font size
0
reset
how to read this tab
guitar tuner
Autoscroll
slow
fast
+/-
esc
set tempo
stop
Help us to improve Ultimate-Guitar.com Take our survey!
×
Author
ols 0
Digging a Ditch
Tabbed by littlemisslover17@hotmail.com

I have most of whats in the song but as usual w/ dmb its not easy to get every note, 
so listen to the song to get a solid idea of order, im just giving a basic idea, I 
do know that the intro is about as right as it gets but the rest could use some work 
i think, also this sounds better played with fingers as opposed to a pick, so thats 
it, enjoy this awesome song!! 




Intro:
E---------------------------------------------------
B-------0----------0---------0----------------------
G-------0-----0----0---------0--------2-2-2-2--0----
D---------------------0---------------4-4-4-4--0----
A-------------------------3-------------------------
E----3-----3----3-------------------------------3---

---------------------------------------
--0---------------------5s-3s-1-1-0----
--0---------------------5s-4s-2-2-0----
-----0---0---0---0---------------------
---------------------3-----------------
--------3---3---3----------------------

-------------------------------------------------------------|
--------0---0-------------0---------0------------------------|
--------0---0-------------0---------0------------------------|
----------------0---0----------0------0---0---0---0----------|
---------------------------------3------3---3---3------------|
-----3------------3---3------3-------------------------------|



for the verses i've come close but its not right.. he doesn't really play a set pattern 
its basically like this, listen to the song to hear the right timing on this too
"run to your dreaming, when your alone"
E--------------------------------------------------------------------
B----0------0-------------------------0------------------------------
G----0------------------0-----0--------0--------0---0---0---0--------
D--------------------------------------------------------------------
A----------------------------------3-------------3---3----3----------
E--3-----3------------3----3------------------------------------3----

"Unplug the tv, turn off your phone"
E-------------------------------------------------------------------
B--0-------------0-------0------------------------------------------
G--0---0---0-----0-------0---0----0----0----0-----------------------
D--------------------0----------------------------------------------
A----------------------3--------3----3---3--------------------------
E--3-----3----3----3------------------------------------------------

"get heavy on with digging your ditch"
E---------------------------------------------------
B-----0---------0-----------------------------------
G-----0----0----0---0-----0-------------------------
D------------0--------------------------------------
A--------------------------------3------------------
E--3------------------3-----3-----------------------

Chorus: this is just the main riff
E-----------------------------------------------------
B-----------------------------------------------------
G-------5--------4------------------------------------
D--2/3-------2---------4---------5--------------------
A-------------------2----------3-----2----------------
E--------------------------------------------3--------

Something like this is played through the chorus, its hard to tell, but basically pluck
what sounds good. playing along w/ the music helps.
E------------------------------------------------------
B------0--------0--------------------------------------
G------0-----0------0----0----0------------------------
D--------------0---------------------------------------
A------------------3---3---3----3----------------------
E---3--------------------------------------------------


Bridge:
"will die.. 
E-------------------------------------------------------
B--------3------------3-------------1-------------------
G---------------------0---------------------------------
D-----4-------4---4-----4-------2-----------------------
A---5-----------5------------3--------------------------
E-------------------------------------------------------
Suggest correction
What's this?
You can suggest a correction to this tab. Community and Mods will review your correction and vote to approve or reject it.
comments
print report bad tab
3 comments total.
0 reply
sultanofswing46 94 wrote on April 17 2009, 12:11 pm

pretty good tab, any idea what the chords are for the chorus?
nice work though

0 reply
sultanofswing46 94 wrote on April 17 2009, 12:14 pm

nevermind i think it's just g and c

0 reply
sultanofswing46 94 wrote on April 17 2009, 12:17 pm

g and c7 i'm pretty sure this time haha

guest
You may want to rate the tab now too:
select rating
Please do not post tabs as comments. Select "correction" instead!