Oops, an error
Loading. Please wait.

Dive In Tab

17,140 views 1 this week
no commentswrite comment
1 2 3 4 5
please rate
add to favorites
launch autoscroll
font size
0
reset
how to read this tab
guitar tuner
Autoscroll
slow
fast
+/-
esc
set tempo
stop
Help us to improve Ultimate-Guitar.com Take our survey!
×
Author
Dive In
Artist: Dave Matthews Band
Album: Big Whiskey and the GrooGrux King

Contributor: Daniel Schnall
tabbed from 6/17/09 performance and SPAC N2 youtube video 
(http://www.youtube.com/watch?v=VZ551GYk6dU)

Chords for verses:
   Am      C      G   Dsus/F#  Em
e |-0-|  |-0-|  |-3-|  |-3-|  |-0-|
B |-1-|  |-1-|  |-0-|  |-0-|  |-0-|
G |-2-|  |-0-|  |-0-|  |-0-|  |-0-|
D |-2-|  |-2-|  |-0-|  |-0-|  |-2-|
A |-0-|  |-3-|  |-2-|  |-x-|  |-2-|
E |---|  |---|  |-3-|  |-2-|  |-0-|


Intro
e|-------------------|
B|-------------------|
G|-----------5-------|x2
D|--3---7----5---5---|
A|--3---7----3---5---|
E|--1---5--------3---|
    F   Am   C   G


Verse 1 (“I saw a man on the side of the road”)
Am  C  Em  G
Am  C  Em  G
Am  C  G  Dsus/F#

Am  C  Em  G
Am  Am  C  G
Am  C  G   C
Am  C  G  Dsus/F#


Chorus (“Wake up sleepy head”)
e|---2---3-------0---(5)---|
B|---3---0-------0---(5)---|
G|---2---0-------0----6----|x4
D|---0---0-------2----7----|
A|-------2-------2----7----|
E|-------3--(2)--0----5----|
     D   G      Em    A


Verse 2 (“Tell me everything will be okay”)
Am  C  Em  G
Am  C  G  Dsus/F#
Am  C  Em   G
Am  C  G  Dsus/F#


Chorus (“Wake up sleepy head”)


“One day do you think we'll wake up”
e|---1----5-------------|
B|---1----5-------------|
G|---2----5----5--------|x2 (then another x2 during Solo)
D|---3----7----5----5---|
A|---3----7----3----5---|
E|---1----5---------3---|
     F    Am   C    G


Solo (tabbed by user DJR on DMBTabs.com)
(played by Dave on album, by Tim in concert)
e|-------------------------------15--13--12--10------10--12----------------|
B|--------8/10--------8--10--12------------------13----------12/10---------|
G|-----5--------7--9-------------------------------------------------------|
D|--7----------------------------------------------------------------------|
A|-------------------------------------------------------------------------|
E|-------------------------------------------------------------------------|

e|----------------------------------9--8--9----7--8--10--12--10--8--10--8--|
B|--------8/10-----------10--8--10-----------------------------------------|
G|-----5--------9--7--9----------------------------------------------------|
D|--7----------------------------------------------------------------------|
A|-------------------------------------------------------------------------|
E|-------------------------------------------------------------------------|

e|--5--7--8--10--8--7--8--7------------7----7--8--7--8--10--12-------------|
B|----------------------------6--8--10---10--------------------------------|
G|-------------------------------------------------------------------------|
D|-------------------------------------------------------------------------|
A|-------------------------------------------------------------------------|
E|-------------------------------------------------------------------------|


Verse 3 (“I have been thinking that lately the blood is increasing”)
Am  C  Em  G
Am  C  G  Dsus/F#
Am  C  Em   G
Am  C  G  Dsus/F#


Chorus (“Wake up sleepy head”)


Notes:
This tab is the way Dave plays it- it sounds fine w/all open chords
Dave strums up and down very fast during the verses but he's just strumming along with 
drums on almost every part- if you're having trouble w/the rhythm, try playing along with 
drums
Suggest correction
What's this?
You can suggest a correction to this tab. Community and Mods will review your correction and vote to approve or reject it.
comments
We did not receive enough feedback on this tab! Please rate:
print report bad tab
1 2 3 4 5
guest
You may want to rate the tab now too:
select rating
Please do not post tabs as comments. Select "correction" instead!