Oops, an error
Loading. Please wait.

Dreamgirl Tab

version 1
version 1

Whole song

17,578 views 6 this week
2 commentsread comments
1 2 3 4 5
accurate
x 6
add to favorites
launch autoscroll
font size
0
reset
how to read this tab
guitar tuner
Tab Pro tools
  • play this tab
  • loop segment
  • change instrument
  • show fretboard
  • metronome
×
Best way to learn
"Dreamgirl"
Autoscroll
slow
fast
+/-
esc
set tempo
stop
Contributor
-------------------------------------------------------------------------------
                             Dreamgirl - Dave Matthews Band
-------------------------------------------------------------------------------
Tabbed by:Espen Rian Skog
Email:Espenskog@gmail.com

Tuning:EADGBE (Standard

Intro/fill:

e|---------------------------------------------------------------------------|
B|---------------------------------------------------------------------------|
G|---------------------------------------------------------------------------|
D|-9-------------------------------6-4-2-----2-4-2---------------------------|
A|---12-11-----11-12-11----------4--------4----------------------------------|
E|----------12-----------12-----(0)------------------------------------------|

Verse:
e|---------------------------------------------------------------------------|
B|---------------------------------------------------------------------------|
G|-1---2---------------------------------------------------------------------|
D|-2---2---------------------------------------------------------------------|
A|-2---0---------------------------------------------------------------------|
E|-0-------------------------------------------------------------------------|

Chorus:
e|---------------------------------------------------------------------------|
B|---------------------------------------------------------------------------|
G|---------------------------------------------------------------------------|
D|-9-----9-----9----------6--6h7--6---6--------------------------------------|
A|----7-----6-----6-----7-----------7----------------------------------------|
E|-9--------7--------5-------------------------------------------------------|

x3 then:

e|---------------------------------------------------------------------------|
B|---------------------------------------------------------------------------|
G|-1----1----1---------------------------------------------------------------|
D|---------------------------------------------------------------------------|
A|----4----4---4-------------------------------------------------------------|
E|-2-------------------------------------------------------------------------|

For the part with the heavy drumming ("caught by a wave") 
Dave just plays the verse chords.

That's it, I'll try and get some fuller verse chords in when I get ahold of a video..
Questions/corrections? Mail me.



| /  slide up
| \  slide down
| h  hammer-on
| p  pull-off
| ~  vibrato
| +  harmonic
| x  Mute note
===============================================================================
comments
print report bad tab
2 comments total.
0 reply
willpat wrote on June 16 2005, 12:00 am

the intro starts with an E

e|------------------------------------------------------
B|------------------------------------------------------
G|------------------------------------------------------
D|-----9-------------------------------6-4-2-----2-4-2--
A|-------12-11-----11-12-11----------4--------4---------
E|-12-----------12-----------12-----(0)-----------------

0 reply
Sterbob23 wrote on June 27 2005, 12:00 am

e|-----------------------------|
B|-----------------------------|
G|-1----1----1-----------------|
D|-----------------------------|
A|----4----4---4---------------|
E|-2---------------------------|

I don't think this part is correct, the 2 on the E and the 1 on the G sound correct, but the 4 A and 1 G don't sound right... the rest of the tab is great.

I want to post or [tab]
guest
You may want to rate the tab now too:
select rating
Please do not post tabs as comments. Select "correction" instead!