Oops, an error
Loading. Please wait.

Dreamgirl Tab

version 2
version 2

Whole song

47,590 views 18 this week
4 commentsread comments
1 2 3 4 5
x 17
add to favorites
launch autoscroll
font size
0
reset
how to read this tab
guitar tuner
Autoscroll
slow
fast
+/-
esc
set tempo
stop
Help us to improve Ultimate-Guitar.com Take our survey!
×
Author
play this and you be like dave
Listen to song for rhythm

Into and chorus 
E|-|---------------------------------------------------------------|
B|-|---------------------------------------------------------------|
G|-|---------------------------------------------------------------|
D|-|------9-7-6----6-7-6------6-4-2----2-4-2-----------------------|
A|-|----7--------7---------4--------4------------------------------|
E|-|----0------------------0---------------------------------------|
             (let the open E ring throughout)
Verse
E|-|----------|-------------|----------------------------------------|
B|-|----------|-------------|----------------------------------------|
G|-|----------|-------------|----------------------------------------|
D|-|----6-----|----7------9-|--6-------------------------------------|
A|-|----7-----|----7------7-|--7-------------------------------------|
E|-|----0-----|----0------0-|--0-------------------------------------|
             
Pre-Chorus:                             x3        b\f chorus
e|-------------------------------------------|------------------|
B|-------------------------------------------|------------------|
G|-------------------------------------------|---1--------------|
D|-9-----9-----9----------6--6h7--6---6------|---x--------------|
A|----7-----6-----6-----7-----------7--------|---4--------------|
E|-9--------7--------5-----------------------|---2--------------|

Bridge

e|------------------|
B|------------------|
G|--99999-----------|
D|--99999-----------|
A|--77777-----------|
E|--00000-----------|


Spend your living days well;)
Suggest correction
comments
print report bad tab
4 comments total. Showing first comments.
+1 reply
AlexAydell 30 Mar 23, 2006 08:53 PM

E|-|---------------------------------------------------------------|
B|-|---------------------------------------------------------------|
G|-|---------------------------------------------------------------|
D|-|------9-7-6----6h7-6------6-4-2----2-4-2-----------------------|
A|-|----7--------7---------4--------4------------------------------|
E|-|----0------------------0---------------------------------------|

good tab.. just think the 6 7 6 should be 6h7 6


0 reply
Brit_89 41 Sep 02, 2006 01:17 PM

Great Job!!! I've been wanting to learn this song for a long time, and I thought it might be too hard. Thanks to your very simple tab I am now able to play it! Thanks sooooo much!!!
- Brittany O'Halloran

0 reply
Dmband27 31 Apr 16, 2008 10:11 PM

Nice tab, it sounds great!
Btw, how do you update you submitted tabs?

guest
You may want to rate the tab now too:
select rating
Wanna post a correction for this tab? Suggest correction