Oops, an error
Loading. Please wait.

Dreamgirl Tab

version 4
version 4

Whole song

1,424 views 3 this week
no commentswrite comment
1 2 3 4 5
please rate
add to favorites
launch autoscroll
font size
0
reset
how to read this tab
guitar tuner
Tab Pro tools
  • play this tab
  • loop segment
  • change instrument
  • show fretboard
  • metronome
×
Best way to learn
"Dreamgirl"
Autoscroll
slow
fast
+/-
esc
set tempo
stop
Contributor
Intro/Chorus:
E|-----------------------------------|
B|-----------------------------------|
G|-----------------------------------|
D|-9-7-6--6h7-6------6-4-2----2h4-2--|
A|--------------7--4--------4--------|
E|-----------------------------------|

Pre-chorus:                                                        
e|--------------------------|----------------------------|-----------|
B|--------------------------|----------------------------|-----------|
G|--------------------------|----------------------------|-----------|
D|-----9---9-------6h7-6----|-----9---9-------6-6h7-6----|--------6--|
A|---7-----------7-------7--|---7-----------7---------7--|-----7-----|
E|-9-----7---7-5------------|-9-----7---7-5--------------|--9--------|
                                                     (2x)        (2x)
 
<--Each chord here is strummed 5 times-->

    E        Esus
e|--0--|    |--x--|
B|--0--|    |--x--|
G|--1--|    |--2--|
D|--2--|    |--2--|
A|--2--|    |--2--|
E|--0--|    |--0--|

E
Caught by a wave, my back to the ocean

Esus
It knocks me off my feet and

E
Just as I find my footing

Esus    Esus
Here you come again...



Relatively easy, yet such a great song.  Have fun with it!
comments
We did not receive enough feedback on this tab! Please rate:
print report bad tab
1 2 3 4 5
I want to post or [tab]
guest
You may want to rate the tab now too:
select rating
Please do not post tabs as comments. Select "correction" instead!