Oops, an error
Loading. Please wait.

Dreams Of Our Fathers Tab

version 4
version 4

Whole song

1,507 views 1 this week
no commentswrite comment
1 2 3 4 5
please rate
add to favorites
launch autoscroll
font size
0
reset
how to read this tab
guitar tuner
Tab Pro tools
  • play this tab
  • loop segment
  • change instrument
  • show fretboard
  • metronome
Autoscroll
slow
fast
+/-
esc
set tempo
stop
"Dreams of Our Fathers"
by Dave Matthews Band
From the album "Everyday" (2001)

Tabbed by Jonathan Carlemar "j.carlemar@hotmail.com"

Standard tuning

Intro:

-----------------------------------|----------------------------------|
-----------------------------------|----------------------------------|
-----------------------------------|----------------------------------|
------4-----4-----7-----5-------0--|------4-----4-----7-----5-------4-|
----1-----2---------4-----2---2----|----1-----2---------4-----2---2---|
--2-----0-----3/5-----5-----3------|--2-----0-----3/5-----5-----3-----|

Vers Riff

-----------------------------------|----------------------------------|
-----------------------------------|----------------------------------|
-----------------------------------|----------------------------------|
------4-----4-----7-----5-------0--|------4-----4-----7-----5-------4-|
----1-----2---------4-----2---2----|----1-----2---------4-----2---2---|
--2-----0-----3/5-----5-----3------|--2-----0-----3/5-----5-----3-----|

-----------------------------------|--------------------------------|
-----------------------------------|--------------------------------|
-----------------------------------|--------------------------------|
------4-----4-----7-----5-------0--|------4-----4--5-5-5-5-5-5-5-5--|
----1-----2---------4-----2---2----|----1-----2----2-2-2-2-2-2-2-2--|
--2-----0-----3/5-----5-----3------|--2-----0------3-3-3-3-3-3-3-3--|

Chorus

  A7                 Dsus2          Bm7#5                D/F#
|---------------------------------|-----------------------------------|
|---------------------------------|-----------------------------------|
|------0-----0-----------2-----2--|------0-----0-------------2-----2--|
|----2-----2-----------0-----0----|----4-----4-------------0-----0----|
|--0-----0-----------5-----5------|--2-----2--------------------------|
|---------------------------------|----------------------2-----2------|

Bridge

|Em       |Cadd9       |D        |Bm    Bm/A#   |


Listen to the song to put these riffs and chords together. It's not so hard when you get
The verse riff is a pretty good excercise for your picking hand. Take time to get it
and accurate!
comments
We did not receive enough feedback on this tab! Please rate:
print report bad tab
1 2 3 4 5
I want to post or [tab]
guest
You may want to rate the tab now too:
select rating
Please do not post tabs as comments. Select "correction" instead!