Oops, an error
Loading. Please wait.

Gaucho tab

11,025 views 9 this week
1 commentread comment
1 2 3 4 5
x 10
add to favorites
×
Save as Personal and add changes to this tab that will be seen only by you. Learn more ›
×
You can save this tab as Personal to edit and correct it or add notes. All changes will be seen only by you. Learn more »
launch autoscroll
font size
0
reset
how to read this tab
guitar tuner
edit
Autoscroll
slow
fast
+/-
esc
set tempo
stop
Author
Difficulty
Gaucho - Dave Matthews Band - Dave's part
Intro/Verse
e|-----------------------------------------------------------------------------|
B|-----------------------------------------------------------------------------|
G|-----------------------------------------------------------------------------|
D|-------------3-3-3-------------1-1-1------------6-6-6--4-4-4--3-3-3----------|
A|-------4-4-4-------------3-3-3------------4-4-4---------------------4-4-4----|
E|--6-6-6------------4-4-4-------------2-2-2-----------------------------------|

Chorus - chords
|-6---4---||
|-6---4---||
|-8---6---||
|-8---6---||
|-6---4---||
|-6---4---||

Bridge - chords
|----7--5--2---||
|----7--5--2---||
|----8--7--3---||
|-9--9--7--4---||
|-9--9--5--4---||
|-7--7--5--2---||

            
            
Suggest correction
Creating personal tab
Creating personal tab
You can edit any tab online and save it as your Personal.

You can edit, replace or remove any tab part or add personal notes – all changes will be seen only by you.

Personal tabs can be accessed anytime from any device, even offline.
Learn more »
comments
print report bad tab
1 comment total.
0 reply
MonkeyFunk 285 Oct 27, 2012 02:17 AM

All sounds good! I found the verse riff easier if I changed the fingering slightly, which allows me to get my hand back in a good position to restart the riff - I've said which finger to use above the tab:
[tab}
4th 2nd 1st 4th 3rd 1st 2nd 4th 1st 3rd 1st 2nd
e|-----------------------------------------------------------------------------|
B|-----------------------------------------------------------------------------|
G|------------------------------------------------1-1-1------------------------|
D|-------------3-3-3-------------1-1-1-------------------4-4-4--3-3-3----------|
A|-------4-4-4-------------3-3-3------------4-4-4---------------------4-4-4----|
E|--6-6-6------------4-4-4-------------2-2-2-----------------------------------|

guest
You may want to rate the tab now too:
select rating
Wanna post a correction for this tab? Suggest correction