Oops, an error
Loading. Please wait.

Grace Is Gone tab

version 2
version 2

Whole song

Interactive

61,324 views 12 this week
5 commentsread comments
1 2 3 4 5
x 5
add to favorites
×
Save as Personal and add changes to this tab that will be seen only by you. Learn more ›
×
You can save this tab as Personal to edit and correct it or add notes. All changes will be seen only by you. Learn more »
launch autoscroll
font size
0
reset
how to read this tab
guitar tuner
edit
Autoscroll
slow
fast
+/-
esc
set tempo
stop
=-=-=-=-=-=-=-=-=-=-=-=-=-=
Dave Matthews Band
Grace Is Gone
The Lillywhites Sessions
Busted Stuff (2002)
Tabbed by Leandro Koren
leandro_koren@yahoo.com.ar
=-=-=-=-=-=-=-=-=-=-=-=-=-=

Intro:
The intro is something like this, I give you the basical notes, just play with them.

      D              D/F#      D/E       D
E|-|--------------|---------|---------|---------------|-|
B|-|-----3-----3--|-----3---|-----3---|-----3------3--|-|
G|-|--0h2-2-0h2-2-|------2--|------2--|--0h2-2-0h2--2-|-|
D|-|--0-----0-----|--0h4----|--0h2----|--0-----0------|-|
A|-|--------------|---------|---------|---------------|-|
e|-|--------------|---------|---------|---------------|-|
                      D
E|-|---------------|-----------|-|
B|-|---------------|-----3-----|-|
G|-|--2h4-2--------|--0h2-2----|-|
D|-|--0-----4-2-0--|--0-----0--|-|
A|-|---------------|-----------|-|
e|-|---------------|-----------|-|

Verse.

Dsus2             D/F#          D/G
Neon shines through smokey eyes tonight
    D                D/G
It's 2 A.M., I'm drunk again
           C9         D[Intro]
And it's heavy on my mind
       C9          D[Intro]
it's heavy on my mind


Dsus2             D/F#
I could never love again
      D/G          D
So much as I love you
                         C9
Where you end, where I begin
          D             D/B(I like how this chord sounds)*
Is like a river going through

Oooooh...

Dsus2               D/F#
Take my heart, take my eyes
                D/G
I need them no more
   D                 C9
If never again they fall
          D        D/B
Upon the one I so adore...

Chorus:

G        D          Bm         A
Excuse me please, one more drink
G              D
Could you make it strong?
         A/C#          D
'Cause I don't need to think
   G         D
She broke my heart
   Bm       A
My Grace is Gone
G       D                 A
Another drink and I'll be gone

Verse:

One drink to remember
Then another to forget
I think of every day to find
A love like you again
One drink to remember
And another to forget

Chorus:

Excuse me please, one more drink
Could you make it strong?
'Cause I don't need to think
She broke my heart
My Grace is Gone
Another drink and I'll be gone
One more drink and I'll move on

Verse:

You think of things impossible
Then the sun refuse to shine
I woke with you beside me
Your cold hand lay in mine

Chorus:

G        D          Bm         A
Excuse me please, one more drink
G              D
Could you make it strong?
         A/C#          D
'Cause I don't need to think
   G         D
She broke my heart
   Bm       A
My Grace is Gone
G       A             D
Another drink and I'll go...
G        D          Bm         A
Excuse me please, one more drink
G              D
Could you make it strong?
         A/C#          D
'Cause I don't need to think
   G         D
She broke my heart
   Bm       A
My Grace is Gone
G       A              D[Intro]
Another drink and I'll move on
G        A             D[Intro]
One more drink and I'll move on
G        A             D[Intro]
One more drink, my grace is gone.

Then just play with the intro until the end.

            
            
Suggest correction
Creating personal tab
Creating personal tab
You can edit any tab online and save it as your Personal.

You can edit, replace or remove any tab part or add personal notes – all changes will be seen only by you.

Personal tabs can be accessed anytime from any device, even offline.
Learn more »
comments
print report bad tab
5 comments total. Showing first comments.
0 reply
geffin 10 Mar 23, 2003 07:00 PM

intro
e|----------|------bend 1/2-------------
B|--3-------|---3----^5----3------------
G|----2-----|-----------------2----^4-2-
D|------0---|---------------------------
A|----------|---------------------------
E|----------|---------------------------

e|---------------------------------
B|---------------------------------
G|----0---3-3--0-------------------
D|---------------------------------
A|---------------------------------
E|---------------------------------

0 reply
whats in a name 154 Nov 03, 2008 07:07 AM

naw, its not that bad actually

0 reply
whats in a name 154 Nov 03, 2008 07:09 AM

plus he said basical in his discription. haha

guest
Wanna post a correction for this tab? Suggest correction