Oops, an error
Loading. Please wait.

Grey Street Bass Tab

version 2
version 2

Whole song

Interactive

2,539 views 1 this week
no commentswrite comment
1 2 3 4 5
please rate
add to favorites
launch autoscroll
font size
0
reset
guitar tuner
Tab Pro tools
  • play this tab
  • loop segment
  • change instrument
  • show fretboard
  • metronome
×
Best way to learn
"Grey Street"
Autoscroll
slow
fast
+/-
esc
set tempo
stop
Difficulty
intermediate
                                             Grey Street
                                          Dave Matthews Band
                                          Tabbed by Atavener

G------------------------|   Repeat lots of time in the verse
D------------------------|
A------------------------|
E--7s3--3-5-2--3-5-2--3--|


G------------------------------------7-----------------------------4---|
D---------------------------------------9s7-7-5------------------4---4-|
A------5-9-7-5-5-4--10-10-9-7--5-5---------------5-7-5-4h5h4-2-2-------|
E--7--7----------------------------------------------------------------|

G---------------------|
D---------------------|
A---------------------|
E-5s3s5s3s5s3s5s3s5s3s5s3

Back to verse

On second chorus repeat it goes on for longer so mess around or improvise with the 
riffs and notes!

Good luck!

NOTE: Stefan Lessard changes how he plays the chorus all the time for live shows so I'm 
saying this one will be exactly right. I think it was the live at Piedmont Park version 
I tabbed to.
comments
We did not receive enough feedback on this tab! Please rate:
print report bad tab
1 2 3 4 5
I want to post or [tab]
guest
You may want to rate the tab now too:
select rating
Please do not post tabs as comments. Select "correction" instead!