Oops, an error
Loading. Please wait.

Idea Of You tab

version 1
version 1

Whole song

10,258 views 1 this week
1 commentread comment
1 2 3 4 5
1 last vote to show rating
add to favorites
×
Save as Personal and add changes to this tab that will be seen only by you. Learn more ›
×
You can save this tab as Personal to edit and correct it or add notes. All changes will be seen only by you. Learn more »
launch autoscroll
font size
0
reset
how to read this tab
guitar tuner
edit
Autoscroll
slow
fast
+/-
esc
set tempo
stop
Author
The Idea of You
Dave Matthews Band

Tabbed by: Kevin Hunsicker (k_hunsicker@comcast.net)

This is a rough attempt at the new DMB song "The Idea of You" debuting this summer.  I
Crumbo's June 6th pull to tab.  Any suggestions, let me know!  Have fun!

(Dacve plays this song using a soprano guitar, but this tab sounds right on with a 
guitar, capo-less, in standard tuning)

Intro

e|------------------------------------8--8--8--|---------------|
B|----------------------------13--10--6--6--6--|--13--13--13---|
G|----------------------------9---7---7--7--7--|--14--12--10---|
D|----------------------------10--8---8--8--8--|--x---x---x----|
A|-/5-7-8-(8)/10-(10)/12-12\--x---x---x--x--x--|--12--10--8----|
E|----------------------------8---6--(6)(6)(6)-|---------------|
    * * *     *
    |---> Play these notes 4 times each (listen for rhythm)

Chorus
             "...inside the idea..."

e|--1--3--0-----|------|
B|--1--1--1--3--|--13--|
G|--2--0--2--3--|--9---|
D|--3--2--2--3--|--10--|
A|--------0--1--|--x---|
E|--------------|--8---|

Bridge

e|----------8-------8---|--------------|
B|--13--10--6---10--6---|--13--13--13--|
G|--9---7---7---7---7---|--14--12--10--|
D|--10--8---8---8---8---|--x---x---x---|
A|--x---x---x---x---x---|--12--10--8---|
E|--8---6--(6)--6--(6)--|--------------|

Outro chords

e|------------------------------|
B|--13--13--13--13--13--13--13--|
G|--10--10--12--10--x---x---9---|
D|--x---x---x---x---14--12--10--|
A|--13--12--10--8---x---x---x---|
E|------------------12--10--8---|

            
            
Suggest correction
Creating personal tab
Creating personal tab
You can edit any tab online and save it as your Personal.

You can edit, replace or remove any tab part or add personal notes – all changes will be seen only by you.

Personal tabs can be accessed anytime from any device, even offline.
Learn more »
Give kudos to tab author, rate the tab!
1 2 3 4 5
comments
print report bad tab
1 comment total.
0 reply
FreeRider14 10 Mar 29, 2007 08:52 AM

chords aren't right

guest
You may want to rate the tab now too:
select rating
Wanna post a correction for this tab? Suggest correction