Oops, an error
Loading. Please wait.

Idea Of You tab

version 2
version 2

Whole song

11,563 views 6 this week
3 commentsread comments
1 2 3 4 5
x 5
add to favorites
×
Save as Personal and add changes to this tab that will be seen only by you. Learn more ›
×
You can save this tab as Personal to edit and correct it or add notes. All changes will be seen only by you. Learn more »
launch autoscroll
font size
0
reset
how to read this tab
guitar tuner
edit
Autoscroll
slow
fast
+/-
esc
set tempo
stop
Easy song that I love.  If you haven't gotten the Live Trax Vol. 6 at Fenway yet, buy it 
 It's incredible.

  *** Capo 5th Fret***
  Tabing is relative to the capo (open string meaning the 5th fret)

  /=slide

  Intro/Verse
E-------------------------3----3----|
B-------------------------1----1----|
G-------------------------0----0----|
D-----------------------------------|
A---0--/2--/3--/5--/7---------------|
E-------------------------3----1----|

  Chorus
E-------------0----1----|
B---1----3----3----1----|
G---0----0----0----2----|
D---2----0----2----3----|
A---3----2----2----3----|
E-------------0----1----|

  ***WHEN GOING BACK TO THE VERSE, GO TO A G CHORD***


  Outro
E---------------------3----|
B---------------------1----|
G---------------------0----|
D---7--5--3--2--0-----0----|
A---8--7--5--3--2--3--2----|
E------------------5--3----|

  That's it.  Now go play it.

            
            
Suggest correction
Creating personal tab
Creating personal tab
You can edit any tab online and save it as your Personal.

You can edit, replace or remove any tab part or add personal notes – all changes will be seen only by you.

Personal tabs can be accessed anytime from any device, even offline.
Learn more »
comments
print report bad tab
3 comments total.
0 reply
keithamiller91 10 Dec 29, 2008 02:03 PM

thanks for the tab!

and i agree the fenway album is on my all time top 10 too

0 reply
eliotdotcom21 18 Dec 10, 2013 11:11 AM

Does anyone have any tips on attempting to recreate the sound of the whole band playing the verse when using a single instrument? It just doesn't sound all that good playing single notes on a guitar.

0 reply
dobyblue 10 Apr 17, 2014 10:00 AM

Yes, there's a tab out there with capo on 10th fret and it sounds great. Watch this YouTube video to see the method the guy uses to play it - https://www.youtube.com/watch?v=ZRTMd56GZjM

guest
Wanna post a correction for this tab? Suggest correction