Oops, an error
Loading. Please wait.

Louisiana Bayou tab

version 2
version 2

Whole song

6,360 views 1 this week
no commentswrite comment
1 2 3 4 5
2 more votes to show rating
add to favorites
×
Save as Personal and add changes to this tab that will be seen only by you. Learn more ›
×
You can save this tab as Personal to edit and correct it or add notes. All changes will be seen only by you. Learn more »
launch autoscroll
font size
0
reset
how to read this tab
guitar tuner
edit
Autoscroll
slow
fast
+/-
esc
set tempo
stop
Difficulty
intermediate
This is a simple song once you get passed the intro. Dave plays this
song on a standard tuned Electric with a clean sound.


INTRO
e---------------------------------12----------------------------|
b------------15----12----14--------------15-----12----14--------|
g-------12-------------------14----------------------------14---|
d---------------------------------------------------------------|
A---------------------------------------------------------------|
E---------------------------------------------------------------|

Verse

e--------------------------------------------------------------|
b--------------------------------------------------------------|
g--------------------------------------------------------------|
d--------------------------------------------------------------|
A--------------------7--------5---------4h5--------------------|
E-------5-5----------------------------------------------------|

Dave does not play the chorus yet when he is with the band.i have had no videos to learn 
On the album it sounds a little like this i only have the first 3 notes.

e---------------------------------------------------------------|
b---------------------------------------------------------------|
g---------------------------------------------------------------|
d---------------------------------------------------------------|
A-----------7------5----------4---------------------------------|
E---------------------------------------------------------------|

haha i hope that helps...its a fun song...have fun with it..

jack babs
Suggest correction
Creating personal tab
Creating personal tab
You can edit any tab online and save it as your Personal.

You can edit, replace or remove any tab part or add personal notes – all changes will be seen only by you.

Personal tabs can be accessed anytime from any device, even offline.
Learn more »
Give kudos to tab author, rate the tab!
1 2 3 4 5
comments
print report bad tab
guest
Wanna post a correction for this tab? Suggest correction