Oops, an error
Loading. Please wait.

Oh Tab

version 3
version 3

Whole song

21,760 views 18 this week
2 commentsread comments
1 2 3 4 5
x 4
add to favorites
×
Save as Personal and add changes to this tab that will be seen only by you. Learn more ›
×
You can save this tab as Personal to edit and correct it or add notes. All changes will be seen only by you. Learn more »
save as personal
new!
launch autoscroll
font size
0
reset
how to read this tab
guitar tuner
Autoscroll
slow
fast
+/-
esc
set tempo
stop
Capo
7th fret
Song:  Oh
Band:  Dave Matthews
Album: Some Devil
Tabbed by:  Ron Vazquez

Here's an easy version of the song.  Mostly derived 
from Dave's performance in Live@VHI, although Dave
plays without a capo (tighter tuning?).  Anyway, enjoy...

Standard tuning.  Capo 7.

* = quick down strum (sorry, don't know technical term)

   A           Dadd4       G
                     *                       *
|-----------------------|-----------------------|
|--------2--------3--3--|--------0-----------0--|
|--------2--------0--0--0--------0-----0h2p0-0--|
|-----2--------4-----4--|-----2--------------2--0
|--0--------4h5---------|-----------------------|
|-----------------------|--3--------3-----------|


   "The world is blowin' up...."  


Verses:   
   D        Bm             D        A

   "I hear you still talk to me..."
   "When it's cold and darkness falls..."

Chorus:
   G                       Em        
   
   "I love you oh so well..."

Ending:

|-----------------------|-----------------------|
|--------3--------3-----|--------3--------3-----|
|--------0--------0-----|--------0--------0-----|
|-----2--------2--------2-----2--------2--------2
|--3--------3--------3--|--2--------2--------2--|
|-----------------------|-----------------------|

|-----------------------|-----------------------|
|--------3--------3-----|--3--------------------|
|--------0--------0-----|--2--------------------|
|-----2--------2--------2--0--------------------|
|--0--------0--------0--|--0--------------------|
|-----------------------|-----------------------|

A:  x02220
Dadd4:  x5403x
G:  320002
D:  x00232
Bm: 224432
Em: 022000
Suggest correction
comments
print report bad tab
2 comments total.
+1 reply
this_is_sparta 10 Jul 23, 2009 02:55 PM

this is all good except one note
|-----------------------|-----------------------|
|--------2--------3--3--|--------0-----------0--|
|--------2--------0--0--0--------0-----0h2p0-0--|
|-----2--------4-----4--|-----0--------------2--0
|--0--------4h5---------|-----------------------|
|-----------------------|--3--------3-----------|
its actually this ^

0 reply
this_is_sparta 10 Jul 23, 2009 02:56 PM

shit the arrow is supposed to point up to the 0 on the D string in the second bar after the 3 on the E

guest
Wanna post a correction for this tab? Suggest correction