Oops, an error
Loading. Please wait.

One Sweet World Tab

version 3
version 3

Whole song

Interactive

627 views 9 this week
no commentswrite comment
1 2 3 4 5
please rate
add to favorites
launch autoscroll
font size
0
reset
how to read this tab
guitar tuner
Autoscroll
slow
fast
+/-
esc
set tempo
stop
Help us to improve Ultimate-Guitar.com Take our survey!
×
Author
Difficulty
intermediate
-------------------------------------------------------------------------------
                             ONE SWEET WORLD - Dave Matthews Band
-------------------------------------------------------------------------------
Tabbed by: guitarsolan
E-mail: n/a

note:

 this tab contains the guitar part played by Dave. Tim's part is not tabbed here but I'm 
in the process
tabbing his part, so stay tuned, and  enjoy!

Tuning: Standard (eadgbe)

intro:

e|---------------------------------------------------------------------------|
B|---------------------------------------------------------------------------|
G|----------------------------5/7--------------------------------------------|
D|--10----8----6----------3h5------10-10--8--6-------------------------------|
A|--10----8----6------5-3----------10-10--8--6---6-6-6-6-6-6-6-x-x-----------|
E|--8-----6----4----4--------------8--8---6--4---4-4-4-4-4-4-4-x-x-----------|

verse:

e|----------------------|
B|----------------------|
G|------7---8/10-10-----|  Repeat this riff for the whole verse and all verses
D|----8-----8/10-10-----|
A|--6-------------------|
E|--------6-------------|

chorus:

e|------------------------------------------------------------|
B|------------------------------------------------------------|
G|------------------------------------------------------------|
D|--10----8----6----8-8---10-10--8--6-------------------------|
A|--10----8----6----8-8---10-10--8--6---6-6-6-6-6-6-6-x-x-----|
E|--8-----6----4----6-6---8--8---6--4---4-4-4-4-4-4-4-x-x-----|

verse:

e|----------------------|
B|----------------------|
G|------7---8/10-10-----|
D|----8-----8/10-10-----|
A|--6-------------------|
E|--------6-------------|

chorus:

e|------------------------------------------------------------|
B|------------------------------------------------------------|
G|------------------------------------------------------------|
D|--10----8----6----8-8---10-10--8--6-------------------------|
A|--10----8----6----8-8---10-10--8--6---6-6-6-6-6-6-6-x-x-----|
E|--8-----6----4----6-6---8--8---6--4---4-4-4-4-4-4-4-x-x-----|

verse:

e|----------------------|
B|----------------------|
G|------7---8/10-10-----|
D|----8-----8/10-10-----|
A|--6-------------------|
E|--------6-------------|

breakdown:

e|----------------------------------------------------------------------------|
B|----------------------------------------------------------------------------|
G|----------------------------------------------------------------------------|
D|---10--8-10-12-13-8---12--10-6---10-8--6---8-8--10-8--6---------------------|
A|---10--8-10-12-13-8---12--10-6---10-8--6---8-8--10-8--6---6-6-6-6-6-6-6-x-x-|
E|---8---6-8--10-11-6---10--8--4---8--6--4---6-6--8--6--4---4-4-4-4-4-4-4-x-x-|

verse:

e|----------------------|
B|----------------------|
G|------7---8/10-10-----|
D|----8-----8/10-10-----|
A|--6-------------------|
E|--------6-------------|

chorus:

e|------------------------------------------------------------|
B|------------------------------------------------------------|
G|------------------------------------------------------------|
D|--10----8----6----8-8---10-10--8--6-------------------------|
A|--10----8----6----8-8---10-10--8--6---6-6-6-6-6-6-6-x-x-----|
E|--8-----6----4----6-6---8--8---6--4---4-4-4-4-4-4-4-x-x-----|

verse:

e|----------------------|
B|----------------------|
G|------7---8/10-10-----|
D|----8-----8/10-10-----|
A|--6-------------------|
E|--------6-------------|

END


************************************

| /   slide up
| \   slide down
| h   hammer-on
| p   pull-off
| ~   vibrato
| +   harmonic
| x   Mute note
| b   Bend
| pb  Pre-bend
| br  Bend release
| pbr Pre-bend release
| brb Bend release bend

************************************
Suggest correction
Give kudos to tab author, rate the tab!
1 2 3 4 5
comments
print report bad tab
guest
You may want to rate the tab now too:
select rating
Wanna post a correction for this tab? Suggest correction