Oops, an error
Loading. Please wait.

Pay For What You Get Tab

version 3
version 3

Whole song

Interactive

1,214 views 1 this week
1 commentread comment
1 2 3 4 5
3 more votes to show rating
add to favorites
launch autoscroll
font size
0
reset
how to read this tab
guitar tuner
Autoscroll
slow
fast
+/-
esc
set tempo
stop
Help us to improve Ultimate-Guitar.com Take our survey!
×
"Pay For What You Get" - Dave Matthews Band

TAB:

(h) - means hammer on
(v) - means vibrato

INTRO:

e--8(h)10--8----------------------8(h)10--8------------------8(h)10--8-|
---8(h)10--8----------------------8(h)10--8------------------8(h)10--8-|
-----------------------------------------------------------------------|
-------------7--7-------5--5----------------5--5--5--7--7--------------|
-------------5--5---8---3--3----------------3--3--3--5--5--------------|
E-------------------6--------------------------------------------------|


e----------------8(h)10--8---------------------------------------------|
-----------------8(h)10--8---------------------------------------------|
-----------------------------------------------------------------------|
--7--7-----5--5--------------5--5--5--7--7--7--7--7--7-----------------|
--5--5--8--3--3--------------3--3--3--5--5--5--5--5--5-----------------|
--------6--------------------------------------------------------------|

VERSE I

e----------------------------------------------------------------------|
----------------5(v)--------------------5(v)---------------------------|
----------------5(v)----5---------------5(v)----5----------------------|
------------------------5--7--8--7--7-----------5--7--8--7--7----------|
---------------------------7--8--7--5--------------7--8--7--5----------|
-----------------------------------------------------------------------|


e----------------------------------------------------------------------|
----------------5(v)--------------------5(v)---------------------------|
----------------5(v)----5---------------5(v)----5----------------------|
------------------------5--7--8--7--7-----------5--7--8--7--7----------|
---------------------------7--8--7--5--------------7--8--7--5----------|
E----------------------------------------------------------------------|


e----------------------------------------------------------------------|
----------------5(v)--------------------5(v)---------------------------|
----------------5(v)----5---------------5(v)----5----------------------|
------------------------5--7--8--7--7-----------5--7--8--7--7----------|
---------------------------7--8--7--5--------------7--8--7--5----------|
E----------------------------------------------------------------------|
1:03

CHORUS I

e----------------------------------------------------------------------|
----5(v)---------------------------------------------------------------|
----5(v)--5--5--5--5-----------------5--5--5--5------------------------|
----------5--5--5--5---3--3---8--8---5--5--5--5---3--3---8--7--8--7--7-|
-----------------------3--3---8--8----------------3--3---8--7--8--7--5-|
E----------------------------------------------------------------------|

Verse II
1:22
e----------------------------------------------------------------------|
-----------------5(v)--------------------------------------------------|
-----------------5(v)---5----------------------------------------------|
------------------------5--7--8--7--7--7--7--7-------------------------|
---------------------------7--8--7--5--5--5--5-------------------------|
-----------------------------------------------------------------------|


e----------------------------------------------------------------------|
----------------5(v)--------------------5(v)---------------------------|
----------------5(v)----5---------------5(v)----5----------------------|
------------------------5--7--8--7--7-----------5--7--8--7--7----------|
---------------------------7--8--7--5--------------7--8--7--5----------|
E----------------------------------------------------------------------|


-----------------------------------------------------------------------|
----------------5(v)--------------------5(v)---------------------------|
----------------5(v)----5---------------5(v)----5----------------------|
------------------------5--7--8--7--7-----------5--7--8--7--7----------|
---------------------------7--8--7--5--------------7--8--7--5----------|
E----------------------------------------------------------------------|

e----------------------------------------------------------------------|
----------------5(v)---------------------------------------------------|
----------------5(v)----5----------------------------------------------|
------------------------5--7--8--7--7----------------------------------|
---------------------------7--8--7--5----------------------------------|
E----------------------------------------------------------------------|

Chorus II
2:01
e----------------------------------------------------------------------|
----5(v)---------------------------------------------------------------|
----5(v)--5--5--5--5-----------------5--5--5--5---------------5--5-----|
----------5--5--5--5---3--3---8--8---5--5--5--5---3--3--8--8—-5--5--3--|
-----------------------3--3---8--8----------------3--3—-8--8--------3--|
E----------------------------------------------------------------------|

e----------------------------------------------------------------------|
--------------------5(v)-----------------5(v)--------------------------|
--------------------5(v)--5--------------5(v)--5-----------------------|
--3--8--7--8--7--7—-------5--7--8--7--7—-------5--7--8--7--7-----------|
--3--8--7--8--7--5-----------7--8--7--5-----------7--8--7--5-----------|
E----------------------------------------------------------------------|


e----------------------------------------------------------------------|
----------------5(v)--------------------5(v)---------------------------|
----------------5(v)----5---------------5(v)----5----------------------|
------------------------5--7--8--7--7-----------5--7--8--7--7----------|
---------------------------7--8--7--5--------------7--8--7--5----------|
E----------------------------------------------------------------------|

e----------------------------------------------------------------------|
----------------5(v)--------------------5(v)---------------------------|
----------------5(v)----5---------------5(v)----5----------------------|
------------------------5--7--8--7--7-----------5--7--8--7--7----------|
---------------------------7--8--7--5--------------7--8--7--5----------|
E----------------------------------------------------------------------|
Chorus III
3:01
e----------------------------------------------------------------------|
----5(v)---------------------------------------------------------------|
----5(v)--5--5--5--5-----------------5--5--5--5---------------5--5-----|
----------5--5--5--5---3--3---8--8---5--5--5--5---3--3--8--8—-5--5--3--|
-----------------------3--3---8--8----------------3--3—-8--8--------3--|
E----------------------------------------------------------------------|

e----------------------------------------------------------------------|
--------------------5(v)-----------------5(v)--------------------------|
--------------------5(v)--5--------------5(v)-5------------------------|
--3--8--7--8--7--7—-------5--7--8--7--7—------5--7--8--7--7------------|
--3--8--7--8--7--5-----------7--8--7--5----------7--8--7--5------------|
E----------------------------------------------------------------------|

e----------------------------------------------------------------------|
----------------5(v)--------------------5(v)---------------------------|
----------------5(v)----5---------------5(v)----5----------------------|
------------------------5--7--8--7--7-----------5--7--8--7--7----------|
---------------------------7--8--7--5--------------7--8--7--5----------|
E----------------------------------------------------------------------|

e----------------------------------------------------------------------|
----------------5(v)--------------------5(v)---------------------------|
----------------5(v)----5---------------5(v)----5----------------------|
------------------------5--7--8--7--7-----------5--7--8--7--7--7-------|
---------------------------7--8--7--5--------------7--8--7--5--5-------|
E----------------------------------------------------------------------|

Outro:

e--8(h)10--8----------------------8(h)10--8------------------8(h)10--8--|
---8(h)10--8----------------------8(h)10--8------------------8(h)10--8--|
------------------------------------------------------------------------|
-------------7--7-------5--5----------------5--5--5--7--7---------------|
-------------5--5---8---3--3----------------3--3--3--5--5---------------|
E-------------------6---------------------------------------------------|


e-----------------8(h)10--8----------------------------------------------|
------------------8(h)10--8----------------------------------------------|
-------------------------------------------------------------------------|
--7--7-----5--5--------------5--5--5-------------------------------------|
--5--5--8--3--3--------------3--3--3-------------------------------------|
E-------6----------------------------------------------------------------|
Suggest correction
Give kudos to tab author, rate the tab!
1 2 3 4 5
comments
print report bad tab
1 comment total.
0 reply
mamason282 10 Feb 02, 2009 01:46 PM

Looks like this is an expanded copy of Version 1. Nonetheless, decent tab...sounds ok

guest
You may want to rate the tab now too:
select rating
Wanna post a correction for this tab? Suggest correction