Oops, an error
Loading. Please wait.

Pay For What You Get Tab

version 4
version 4

Whole song

Interactive

604 views 1 this week
1 commentread comment
1 2 3 4 5
1 last vote to show rating
add to favorites
launch autoscroll
font size
0
reset
how to read this tab
guitar tuner
Autoscroll
slow
fast
+/-
esc
set tempo
stop
Help us to improve Ultimate-Guitar.com Take our survey!
×
Author
Difficulty
intermediate
Pay For What You Get
Dave Matthews

standard tuning

intro
e---------------------------------------------------------------------------|
---9/10---8-----------------------------------------------------------------|
---9/10---9------7-7--7-7--5------------------------------------------------|
----------10-----7-7--8-8--5--(repeat)--------------------------------------|
-----------------5-5--8-8--3------------------------------------------------|
E---------------------6-6---------------------------------------------------|

         Verses
e---------------3--------------------|
---6-6-6--6-----5--------------------|
---7-7-7--7-----5--5-5------7-----5--|
---7-7-7--7-----3--5-5----7-8--7--5--|(repeat, along with opening riff thing)
---5-5-5--5--------3-3----7-8--7--3--|
E-------------------------5-6--5-----|

             Chorus thingy
...oo and she asks me how....
e------------------------------------------------|
-------------------------------------------------|
---2--2---3-3---5---2-2--3-3-----7-----5---------|
---3--3---3-3---5---3-3--3-3---7-8--7--5---------|
---3--3---1-1---3---3-3--1-1---7-8--7--3---------|
E--1--1-------------1-1--------5-6--5------------|
Suggest correction
Give kudos to tab author, rate the tab!
1 2 3 4 5
comments
print report bad tab
1 comment total.
0 reply
bobdogg23 30 Oct 10, 2010 12:56 PM

Great tab! I really love this song. I think the only thing that might be different is the first two notes (the 9/10 slide). I think it sounds better with an 8 h10 on the b and e strings. I think that's what Dave does on the video too. Other than that sounds like you nailed it. Thanks for posting.

guest
You may want to rate the tab now too:
select rating
Wanna post a correction for this tab? Suggest correction