Oops, an error
Loading. Please wait.

Pig Tab

version 2
version 2

Whole song

3,964 views 3 this week
no commentswrite comment
1 2 3 4 5
x 3
add to favorites
launch autoscroll
font size
0
reset
how to read this tab
guitar tuner
Autoscroll
slow
fast
+/-
esc
set tempo
stop
Help us to improve Ultimate-Guitar.com Take our survey!
×
Author
Difficulty
novice
Date: 5/28/2011
From: Jamie Sheridan
Subject: Dave Matthews Band

"Pig"

From: Before These Crowded Streets



So I was bored... Looking up some songs that I really like and found a few tabs for Dave 
Matthews Band’s “Pig”. The ones I found were close but not perfect. This is how it’s done.

Intro/Verse
E:------------|
B:------------|
G:------------|
D:-9---9---9--|
A:-7----------|
E:-----5---7--|

Chorus
E:----------|
B:-2--------|
G:-2--4-----|
D:-2--2--4--|
A:-------4--|
E:----4--2--|

Come sister, my brother...
E:-3--------2--2--3--|
B:-3--2--3--3--3--3--|
G:-0--2--2--4--2--0--|
D:-0--2-----4-----0--|
A:-2--------2-----2--|
E:-3-----2--------3--|

Love, Love, Love...
E:----------------|
B:----------------|
G:-4---4---4---3--|
D:-2---2-------X--|
A:----------------|
E:-4---3---2---2--|
Suggest correction
Give kudos to tab author, rate the tab!
1 2 3 4 5
comments
print report bad tab
guest
You may want to rate the tab now too:
select rating
Wanna post a correction for this tab? Suggest correction