Oops, an error
Loading. Please wait.

Rapunzel Tab

version 2
version 2

Whole song

8,223 views 18 this week
3 commentsread comments
1 2 3 4 5
worth learning
x 3
add to favorites
launch autoscroll
font size
0
reset
how to read this tab
guitar tuner
Tab Pro tools
  • play this tab
  • loop segment
  • change instrument
  • show fretboard
  • metronome
Autoscroll
slow
fast
+/-
esc
set tempo
stop
Contributor
-=-=-=-=-=-=-=-=-=-=-=-=-=-=-=-=-=-=-=
Dave Matthews Band                         
02 - Rapunzel                               
Before This Crowded Streets                
Tabbed By Leandro Koren                    
leandro_koren@yahoo.com.ar                 
-=-=-=-=-=-=-=-=-=-=-=-=-=-=-=-=-=-=-=

Intro:

E||--------------------------------||
B||--------------------------------||
G||----------------------9-----7---||
D||-----------3---5----7-----5-----||
A||--5-5-5-5-----------------------||
E||--------------------------------||

Verse:

  Gaad2 C   F   C  
E|-----------------| 
B|-----------------| 
G|-----------------|
D|--5---5-------5--|
A|--2---3---3---3--|
e|--3-------1------|

''I Do me best for you''part: (Riff I)

    C C/B C C/B C C/B 
E|---------------------------| 
B|---------------------------|
G|---------------------------|
D|--5--5--5--5--5--5---------|
A|--3--2--3--2--3--2---------|
e|---------------------------|

Gaad2   C
Open wide
   F             C
oh so good I'll eat you
Gaad2          C
Take me for a ride
F                C
In your sweet delicious
 Gaad2          C
Perfect little mouth
 F           C
Thereupon I linger
Gaad2             C
You will have no doubt
Riff I
I'll do my best for you
Love
Let's stop to get going
Lost my self just thinking
About the two of us
From each other drinking
Begin with the lips
Fingertips and kissing
Turn me inside out
I do my best for you
Lip and down we go
From the top you push
This is such a thrill
Love is love and dancing
Shake your tambourine
You blow my head open
One thing I'm sure
I do my best for you I do
For you I would crawl
Through the darkest dungeon
Climb the castle wall
If you are my Rapunzel
You let your hair down
Right through your window
Good they locked the door
I do my best for you

Intro 4 times and then:

     D   Bb    C    D    Bb   C
E|--------------------------------------|
B|--------------------------------------|
G|--------------------------------------|
D|---7--------------7-------------------|
A|---5----5----7----5----5----7---------|
E|---X----6----8----X----6----8---------|

 Dm5    Bb       C    Dm5
I think my world of you
       Bb       C    Dm5
All of my heart I do
       Bb         C         Dm5
Blood through my veins for you
       Bb       C     Dm5
You alone have all of me
       Bb       C    Dm5
I give my world to you
       Bb       C    Dm5
To you I will be true

Intro 4 times

Too good to be real
Smell of something cooking
My soul you're to steal
Food of love we're filling
What you've given me
For it there's no measure
Of one thing I am sure
I'll give me best for you
I think my world for you
All of my heart I do
Blood through my veins for you
You alone have all of me
From you my strength is full
To carry you burdens too
I give my world to you
Hip lock up so tight
You drive me crazy
Crazy is allright
With you looking at me
You make me fell high
Every single thing you do to me
Is like I'm drunk
I do my best for you, I do.
-=-=-=-=-=-=-=-=-=-=-=-=-=-=-=-=-=-=-=-=-=-=-=-=-=-=-=-=-=-=-=-=-=-=-=-=-=-=
-=-=-=-=-=-=-=-=-=-=-=-=-=-=-=-=-=-=-=-=-=-=-=-=-=-=-=-=-=-=-=-=-=-=-=-=-=-=
Any questions mail me:
leandro_koren@yahoo.com.ar
-=-=-=-=-=-=-=-=-=-=-=-=-=-=-=-=-=-=-=-=-=-=-=-=-=-=-=-=-=-=-=-=-=-=-=-=-=-=
-=-=-=-=-=-=-=-=-=-=-=-=-=-=-=-=-=-=-=-=-=-=-=-=-=-=-=-=-=-=-=-=-=-=-=-=-=-=
comments
We did not receive enough feedback on this tab! Please rate:
print report bad tab
1 2 3 4 5
3 comments total.
0 reply
awobijo wrote on May 10 2007, 06:52 pm

wtf mate wheres the ending outro finale!?!?!?

0 reply
awobijo wrote on May 10 2007, 06:53 pm

wtf mate. wheres the outro ending part? its the best part

0 reply
awobijo wrote on May 10 2007, 06:53 pm

2

I want to post or [tab]
guest
You may want to rate the tab now too:
select rating
Please do not post tabs as comments. Select "correction" instead!