Oops, an error
Loading. Please wait.

Recently Tab

version 1
version 1

Live

  • This version contains the outro jam played at most... Show more

Whole song

88 views 1 this week
no commentswrite comment
1 2 3 4 5
3 more votes to show rating
add to favorites
launch autoscroll
font size
0
reset
how to read this tab
guitar tuner
Autoscroll
slow
fast
+/-
esc
set tempo
stop
Help us to improve Ultimate-Guitar.com Take our survey!
×
Author
Difficulty
advanced
About this tab version
This version contains the outro jam played at most live performances (noted from this one, a summer tour warm up in 2013). Also added sections that were not contained in some other tabs, such as the end of the chorus. Was this info helpful? Yes No
Dave Matthews Band
Recently
Live at PNC Bank Arts Center, Holmdel, NJ 6/6/13 - https://www.youtube.com/watch?v=nXS-LXtsHlA


Intro

e|------------------------|
B|------------------------|
G|-10---9---7---6---5---4-|
D|-7----7---4---4---2---2-|
A|-x----x---x---x---x---x-|
E|-10---8---7---5---5---3-|    (Lightly strum last chord a second time)


e|------------------------|
B|------------------------|
G|-------------4----------|
D|-----7\5--2-------4--5--|
A|-3/5-----------2--------|
E|------------------------|


e|-------------------------|
B|-------------------------|
G|---4------5--------------|
D|-----0-3-------5--5------|
A|------------3------------|
E|-3-----------------------|   

e|-------------------------|
B|-------------------------|
G|---4------5--------------|
D|-----0-3-------5--5------|
A|------------3------------|
E|-3-----------------------|   

e|------------------------------------|
B|------------------------------------|
G|---4------5--3--2--0----------------|
D|-----0-3--3--3--3--0----------0-----|
A|-----------------------/8-----------|
E|-3-------------------------8-----3--|




Verse

e|-------------------------|
B|-------------------------|
G|---4------5--------------|
D|-----0-3-------5--5------|
A|------------3------------|
E|-3-----------------------| 



Chorus

e|-------------------------------------|
B|-------------------------------------|
G|-7---6---5---4---------------4-------|
D|-4---4---2---2-------7\5--2-------4--|
A|-x---x---x---x---3/5-----------2-----|
E|-7---5---5---3-----------------------|

e|--------------------------------------|
B|--------------------------------------|
G|-7---6---5---4---------------4--------|
D|-4---4---2---2-------7\5--2-------4-5-|
A|-x---x---x---x---3/5-----------2------|
E|-7---5---5---3------------------------|

e|-------------------------|
B|-------------------------|
G|---4------5--------------|
D|-----0-3-------5--5------|
A|------------3------------|
E|-3-----------------------|

e|-------------------------|
B|-------------------------|
G|---4------5--------------|
D|-----0-3-------5--5------|
A|------------3------------|
E|-3-----------------------| 

e|------------------------------------|
B|------------------------------------|
G|---4------5--3--2--0----------------|
D|-----0-3--3--3--3--0----------0-----|
A|-----------------------/8-----------|
E|-3-------------------------8-----3--|



"Yeah, yeah"

e|---------------------------|
B|---------------------------|
G|---------------------------|
D|-------0----------0--------|
A|---0-3-------/8------------|
E|-3--------3-----8----------|



Jam Section

e|-------------------|
B|-----------=-------|
G|-------------------|
D|----------0--------|
A|-----/8------------|
E|--3-----8----------|

e|-x-----|
B|-10----|
G|-10----|
D|-9-----|
A|-10----|
E|-------|  For each time this goes through, play it an additional time.


On the last time, start strumming the above, and then play:

e|--------------------------------|
B|--------------------------------|
G|--------------------------------|
D|(12)(12)(9)(9)(10)(10)(11)(11)--|
A|-10--10--7--7--8---8---9---9----|
E|--------------------------------|

e|--------------------------------|
B|--------------------------------|
G|--------------------------------|
D|(12)(12)(9)(9)(10)(10)(11)(11)--|
A|-10--10--7--7--8---8---9---9----|
E|--------------------------------|

e|--------------------------------|
B|--------------------------------|
G|--------------------------------|
D|(12)(12)(9)(9)(10)(10)(11)(11)--|
A|-10--10--7--7--8---8---9---9----|
E|--------------------------------|

e|--------------------------------|
B|--------------------------------|
G|--------------------------------|
D|(12)(12)(15)(15)(14)(14)(13)(13)|
A|-10--10--13--13--12--12--11--11-|
E|--------------------------------|

At the end of the jam:

e|-----------------------|
B|-----------------------|
G|-10----10--9-----------|
D|-10----10--9--10--8----|
A|-8-----8---7--10--8----|
E|--------------8---6----|
 

e|-------------------------|
B|-------------------------|
G|---4------5--------------|
D|-----0-3-------5--5------|
A|------------3------------|
E|-3-----------------------| 


"Pretty pretty girl, lovely lovely girl oh"

e|---------------------------|
B|---------------------------|
G|---------------------------|
D|-------0----------0--------|
A|---0-3-------/8------------|
E|-3--------3-----8----------|


"People stare, and we ignore and we just ignore everything"

e|-------------------------|
B|-------------------------|
G|---4------5--------------|
D|-----0-3-------5--5------|
A|------------3------------|
E|-3-----------------------| 


On the last time:

e|------------------------------------|
B|------------------------------------|
G|---4------5--3--2--0----------------|
D|-----0-3--3--3--3--0----------0-----|
A|-----------------------/8-----------|
E|-3-------------------------8-----3--|


And the chorus again:

e|-------------------------------------|
B|-------------------------------------|
G|-7---6---5---4---------------4-------|
D|-4---4---2---2-------7\5--2-------4--|
A|-x---x---x---x---3/5-----------2-----|
E|-7---5---5---3-----------------------|

e|--------------------------------------|
B|--------------------------------------|
G|-7---6---5---4---------------4--------|
D|-4---4---2---2-------7\5--2-------4-5-|
A|-x---x---x---x---3/5-----------2------|
E|-7---5---5---3------------------------|

e|-------------------------|
B|-------------------------|
G|---4------5--------------|
D|-----0-3-------5--5------|
A|------------3------------|
E|-3-----------------------| 

e|-------------------------|
B|-------------------------|
G|---4------5--------------|
D|-----0-3-------5--5------|
A|------------3------------|
E|-3-----------------------| 

e|-----------------------------------3---|
B|-----------------------------------3---|
G|---4------5--3--2--0---------------0---|
D|-----0-3--3--3--3--0----------0----0---|
A|-----------------------/8----------2---|
E|-3-------------------------8-------3---|
Suggest correction
Give kudos to tab author, rate the tab!
1 2 3 4 5
comments
print report bad tab
guest
You may want to rate the tab now too:
select rating
Wanna post a correction for this tab? Suggest correction