Oops, an error
Loading. Please wait.

Rhyme And Reason Tab

version 3
version 3

Whole song

Interactive

7,888 views 3 this week
1 commentread comment
1 2 3 4 5
excellent!
x 3
add to favorites
launch autoscroll
font size
0
reset
how to read this tab
guitar tuner
Tab Pro tools
  • play this tab
  • loop segment
  • change instrument
  • show fretboard
  • metronome
Autoscroll
slow
fast
+/-
esc
set tempo
stop
Difficulty
intermediate
----------------------------------------------------------------------------
                             Rhyme and Reason - Dave Matthews Band
----------------------------------------------------------------------------
Tabbed by: John Lindenmuth
Email: jlinden@clemson.edu


Tuning: Standard

I tabbed this from Listener Supported Disc 1 and I am 100% positive this is how it is 
 Tough to play at first but will come with practice!

Intro and Verse

e|------------------------------------------|
B|------------------------------------------|
G|--------3-------------------9/7-----------|
D|--3/5-0---0---5-------7-7---------10------|
A|----------------6/8-----------------------|
E|------------6-------8-----8-----6---------|

Chorus

e|----------------------|
B|----------------------|
G|------5---3-----------|
D|--5---5---3---7-------|
A|--5---3---1---7-------|
E|--3-----------5-------|


Order:

Intro/Verse- 16x
Chorus- 2x
Intro/Verse- 14x
Chorus- 4x
Intro/Verse- 16x
Chorus- 6x

then there is a slow part at the end which is:

Chorus: (hold each chord)

e|----------------------|
B|----------------------|
G|-------5~---3~--------|
D|--5~---5~---3~---7~---|   4x
A|--5~---3~---1~---7~---|
E|--3~-------------5~---|
comments
We did not receive enough feedback on this tab! Please rate:
print report bad tab
1 2 3 4 5
1 comment total.
0 reply
floppypick wrote on July 11 2009, 10:31 pm

I just changed the last note, it's technically the same not but it's easier to play this.

Use your middle finger on the 8 then use your ring finger to slide from the 9 to the 7, your middle should now be in the perfect position to play the 6 and your index for the 5.

e|------------------------------------------|
B|------------------------------------------|
G|--------3-------------------9/7-----------|
D|--3/5-0---0---5-------7-7----------5------|
A|----------------6/8-----------------------|
E|------------6-------8-----8-----6---------|

I want to post or [tab]
guest
You may want to rate the tab now too:
select rating
Please do not post tabs as comments. Select "correction" instead!