Oops, an error
Loading. Please wait.

Round Round Tab

version 2
version 2

Whole song

4,712 views 6 this week
no commentswrite comment
1 2 3 4 5
excellent!
x 3
add to favorites
launch autoscroll
font size
0
reset
how to read this tab
guitar tuner
Autoscroll
slow
fast
+/-
esc
set tempo
stop
Help us to improve Ultimate-Guitar.com Take our survey!
×
----------------------------------------------------------------------------
                             Round & Round - Dave Matthews Band
----------------------------------------------------------------------------

Pretty sure this is 100%....try it out

e|--------------------------------------------------------------------------|
B|--------------------------------------------------------------------------|
G|0h2p0------4---0------------0----------------0----------------------------|
D|-------2---------------2--------------------------------------------------|
A|-------------------3--------------------2---------------------------------|
E|----------------------------------3---------------------------------------|

*Played several times over and over

e|--------------------------------------------------------------------------|
B|--------------------------------------------------------------------------|
G|-----7----------------5s4-------------------------------------------------|
D|5p0------------7-------------2s5------------------------------------------|
A|----------5---------------------------------------------------------------|
E|--------------------------------------------------------------------------|

*Played once after finished playing previous little tab

| /  slide up
| \  slide down
| h  hammer-on
| p  pull-off
| ~  vibrato
| +  harmonic
| x  Mute note
Suggest correction
Give kudos to tab author, rate the tab!
1 2 3 4 5
comments
print report bad tab
guest
You may want to rate the tab now too:
select rating
Wanna post a correction for this tab? Suggest correction