Oops, an error
Loading. Please wait.

Samurai Cop Tab

115 views 15 this week
no commentswrite comment
1 2 3 4 5
3 more votes to show rating
add to favorites
launch autoscroll
font size
0
reset
how to read this tab
guitar tuner
Autoscroll
slow
fast
+/-
esc
set tempo
stop
Help us to improve Ultimate-Guitar.com Take our survey!
×
Author
Difficulty
intermediate
Dave Matthews Band
Samurai Cop
(new song debuted in 2016, sometimes called "Joy Begin")

Tuning: Standard

[Intro]
e|-----------| 
B|----5-4-0--| 
G|----4-4-4--| 
D|----x-x-x--|x2 
A|--2-2-2-2--| 
E|-----------|


[Verse]
e|--------------------------------------| 
B|----5-4-0----5-4-0----5-4-0----5-4-0--| 
G|----4-4-4----4-4-4----4-4-4----4-4-4--| 
D|----x-x-x----x-x-x----x-x-x----x-x-x--|x2 
A|----2-2-2--2-2-2-2----2-2-2----2-2-2--| 
E|--4-----------------0--------0--------| 

e|--------------------------------------|
B|----5-4-0----5-4-0----5-4-0----5-4-0--|
G|----4-4-4----4-4-4----4-4-4----4-4-4--|
D|----x-x-x----x-x-x----x-x-x----x-x-x--|
A|----2-2-2----x-x-x--2-2-2-2----2-2-2--|
E|--0--------2-----------------0--------| 

e|--------------------------------------| 
B|----5-4-0----5-4-0----5-4-0----5-4-0--| 
G|----4-4-4----4-4-4----4-4-4----4-4-4--| 
D|----x-x-x----x-x-x----x-x-x----x-x-x--|
A|----2-2-2----x-x-x--2-2-2-2--2-2-2-2--| 
E|--0--------2--------------------------| 


[Chorus]
e|-----------------|
B|-----------------|
G|--x-------4---x--|
D|--2---4---4---2--|x3
A|--2---4---2---2--|
E|--0---2-------0--|

e|-----------------|
B|-----------------|
G|--x-------4---4--|
D|--2---4---4---4--|
A|--2---4---2---2--|
E|--0---2----------|


[Bridge]
e|---------|   |-----| 
B|---------|   |-----| 
G|--9------|   |-----| 
D|--9---7--|x3 |--4--| 
A|--7---7--|   |--4--| 
E|------5--|   |--2--| 

End 
e|-------------| 
B|-------------| 
G|--x-------4--| 
D|--2---4---4--| 
A|--2---4---2--| 
E|--0---2------|



************************************

| x  Dead note  

************************************
Suggest correction
Give kudos to tab author, rate the tab!
1 2 3 4 5
comments
print report bad tab
guest
You may want to rate the tab now too:
select rating
Wanna post a correction for this tab? Suggest correction