Oops, an error
Loading. Please wait.

Shake Me Like A Monkey Bass Tab

5,234 views 3 this week
1 commentread comment
1 2 3 4 5
excellent!
x 5
add to favorites
launch autoscroll
font size
0
reset
guitar tuner
Autoscroll
slow
fast
+/-
esc
set tempo
stop
Help us to improve Ultimate-Guitar.com Take our survey!
×
Author
Wazzzup! this is probably the best song from Big Whiskey and the Groogrux
King so i checked for a tab and there was none :( so i made this one :) 
I think the bassist uses a 5 string or maybe different tuning cuz there 
was some really low notes in that song... but i made it easy and found it in
my 4 string :D please rate and comment :) peace ! AJ :P

Normal Tuning
G|
D|
A|
E|

Intro
|------------------8-------------------------|
|---3h5-----3h5-----------3------------------|
|----------------6---6---------------1-------|
|-3-----3-1-------------1---1--3-1-3---0-1-3-|

|------------------8-----------------------|
|---3h5-----3h5-----------3----------------|
|----------------6---6---------------1-----|
|-3-----3-1-------------1---1--3-1-3---1-3-|

Main Riff
|---------------------------------|
|---------------------------------|
|---------------------------3--1--|
|-1h3-3-3-3-3--1h3-3-3-3-3--------|
                                    both riffs x4
|---------------------------------|
|---------------------------------|
|---------------------------1--1--|
|-1h3-3-3-3-3--1h3-3-3-3-3--------|

Chorus
|------------------8-------------------------|
|---3h5-----3h5-----------3------------------|
|----------------6---6---------------1-------|
|-3-----3-1-------------1---1--3-1-3---0-1-3-|

|------------------8-------------------------|
|---3h5-----3h5-----------3------------------|
|----------------6---6---------------1-------|
|-3-----3-1-------------1---1--3-1-3---0-1-3-|

|------------------8------------------------|
|---3h5-----3h5-----------3-----------------|
|----------------6---6---------------1------|
|-3-----3-1-------------1---1--3-1-3---1-3~-|

|--------------8-----------------------|
|-3h5---3h5-----------3----------------|
|------------6---6---------------1-----|
|-----1-------------1---1--3-1-3---1-3-|

Main Riff
|---------------------------------|
|---------------------------------|
|---------------------------3--1--|
|-1h3-3-3-3-3--1h3-3-3-3-3--------|
                                    both riffs x1
|---------------------------------|
|---------------------------------|
|---------------------------1--1--|
|-1h3-3-3-3-3--1h3-3-3-3-3--------|

Chorus
|------------------8-------------------------|
|---3h5-----3h5-----------3------------------|
|----------------6---6---------------1-------|
|-3-----3-1-------------1---1--3-1-3---0-1-3-|

|------------------8-------------------------|
|---3h5-----3h5-----------3------------------|
|----------------6---6---------------1-------|
|-3-----3-1-------------1---1--3-1-3---0-1-3-|

|------------------8------------------------|
|---3h5-----3h5-----------3-----------------|
|----------------6---6---------------1------|
|-3-----3-1-------------1---1--3-1-3---1-3~-|

|--------------8-----------------------|
|-3h5---3h5-----------3----------------|
|------------6---6---------------1-----|
|-----1-------------1---1--3-1-3---1-3-|

Bridge
|-------5----9-12-------5-----9--7-------5-----9-12-------5-----9--7-----|
|----9-----7----------9----7----------9-----7----------9-----7-----------|
|-5----------------5----------------5---------------5-----------------5--|
|------------------------------------------------------------------------|

Main Riff
|---------------------------------|
|---------------------------------|
|---------------------------3--1--|
|-1h3-3-3-3-3--1h3-3-3-3-3--------|
                                    both riffs x3
|---------------------------------|
|---------------------------------|
|---------------------------1--1--|
|-1h3-3-3-3-3--1h3-3-3-3-3--------|

Chorus
|------------------8-------------------------|
|---3h5-----3h5-----------3------------------|
|----------------6---6---------------1-------|
|-3-----3-1-------------1---1--3-1-3---0-1-3-|

|------------------8-------------------------|
|---3h5-----3h5-----------3------------------|
|----------------6---6---------------1-------|
|-3-----3-1-------------1---1--3-1-3---0-1-3-|

|------------------8------------------------|
|---3h5-----3h5-----------3-----------------|
|----------------6---6---------------1------|
|-3-----3-1-------------1---1--3-1-3---1-3~-|

|--------------8------------------------|
|-3h5---3h5-----------3-----------------|
|------------6---6---------------1------|
|-----1-------------1---1--3-1-3---1-3~-|

Interlude
|--------------------------------------------------------------|
|--5----3----1--3------------------5----3----1--3--------------|
|------------------------1-------------------------------1-----|
|------------------3-1-3----3-1--------------------3-1-3---3-1-|

Main Riff
|---------------------------------|
|---------------------------------|
|---------------------------3--1--|
|-1h3-3-3-3-3--1h3-3-3-3-3--------|
                                    both riffs x2
|---------------------------------|
|---------------------------------|
|---------------------------1--1--|
|-1h3-3-3-3-3--1h3-3-3-3-3--------|

Outro
|---------------------------------------------------|
|---------------------------------------------------|
|---------------------------------------------------|
|-1h3-3-3-3-3--1h3-3-3-3-3--1h3-3-3-3-3-1h3-3-3-3-3-|


And thats it ! please rate and comment :D AJ :P 
Suggest correction
What's this?
You can suggest a correction to this tab. Community and Mods will review your correction and vote to approve or reject it.
comments
print report bad tab
1 comment total.
-1 reply
huddyc 125 wrote on December 27 2013, 12:09 pm

Its actually in Drop D.

G|--
D|--
A|--
D|--

guest
You may want to rate the tab now too:
select rating
Please do not post tabs as comments. Select "correction" instead!