Oops, an error
Loading. Please wait.

Shake Me Like A Monkey Tab

version 3
version 3

Whole song

1,783 views 6 this week
no commentswrite comment
1 2 3 4 5
accurate
x 1
add to favorites
launch autoscroll
font size
0
reset
how to read this tab
guitar tuner
Tab Pro tools
  • play this tab
  • loop segment
  • change instrument
  • show fretboard
  • metronome
Autoscroll
slow
fast
+/-
esc
set tempo
stop
Contributor
Tuning
D A D G B E
Intro play 2

e---------------------|-------------|--------------------------|
b---------------------|---------3--5|--------------------------|
g---------------3-----|-------------|--------------------------|
d-----5~--3--5-----5--|-----5~------|---1-----3----------------|
a---------------------|-------------|-----1-----3-------3------|
D--5------------------|--3----------|-1-----3-----5-3-5---5-3--|

Verse play 4,2,3

e------------------------|-------------------------|
b------------------------|-------------------------|
g------------------------|-------------------------|
d------------------------|--------------------5-3--|
a------------------------|--------------------3-1--|
D--0-3-3-5-5--0-3-3-5-5--|-0-3-3-5-5--0-3-3-5------|


e------------------------|-------------------------|
b------------------------|-------------------------|
g------------------------|-------------------------|
d------------------------|--------------------3-3--|
a------------------------|--------------------1-1--|
D--0-3-3-5-5--0-3-3-5-5--|-0-3-3-5-5--0-3-3-5------|

Chorus play 3

e---------|---------|--------------------------|
b---------|---------|--------------------------|
g---------|---------|--------------------------|
d-----5~--|-----5~--|---1-----3----------------|
a---------|---------|-----1-----3-------3------|
D--5------|--3------|-1-----3-----5-3-5---5-3--|

Bridge play 4

e--0--|--0--|
b--3--|--1--|
g--2--|--0--|
d--0--|--2--|
a--0--|--0--|
D--0--|-----|

(Trumpet Solo)

e--------------------------333333XX|
b--------------------------333333XX|
g--------5--3--------------333333XX|
d--3--5--------3--3--4--5--33333345|
a--------------------------XXXXXXXX|
D--------------------------XXXXXXXX|

e--------------------------55--33--/5|
b--------------------------55--33--/5|
g--------5--3--------------55--33--/5|
d--3--5--------3--3--4--5--55--33--/5|
a--------------------------XX--XX----|
D--------------------------XX--XX----|
comments
We did not receive enough feedback on this tab! Please rate:
print report bad tab
1 2 3 4 5
I want to post or [tab]
guest
You may want to rate the tab now too:
select rating
Please do not post tabs as comments. Select "correction" instead!