Oops, an error
Loading. Please wait.

Shotgun Tab

version 2
version 2
9,609 views 1 this week
2 commentsread comments
1 2 3 4 5
please rate
add to favorites
launch autoscroll
font size
0
reset
how to read this tab
guitar tuner
Tab Pro tools
  • play this tab
  • loop segment
  • change instrument
  • show fretboard
  • metronome
×
Best way to learn
"Shotgun"
Autoscroll
slow
fast
+/-
esc
set tempo
stop
Difficulty
Capo
novice
5th fret
Capo on 5

E---0---------------------------0--------------------------|
B---5--3--0--1-----0--1-----1---5--3--0--1-----0--1-----3--|
G---------------2-----------0---------------2-----------3--|
D---------------------------2---------------------------3--|
A------------------------3--3------------------------1--1--|
E----------------------------------------------------------|

E---0---------------------------0-----------------------0--|
B---5--3--0--1-----0--1-----1---5--3--0--1-----0--1-----1--|
G---------------2-----------2---------------2-----------2--|
D---------------------------2------------------------3--3--|
A------------------------0--0------------------------------|
E----------------------------------------------------------|

I have a decent recording of the song, and this is what I came up with.
Enjoy!
comments
We did not receive enough feedback on this tab! Please rate:
print report bad tab
1 2 3 4 5
2 comments total.
0 reply
burnonedown wrote on August 22 2006, 06:53 pm

yeah it pretty much it right except for theres a slide from 1-5, maybe its just on my version since it hasnt been released yet

0 reply
younevrknow41 wrote on July 1 2009, 07:27 pm

looks good but this is only the Intro and Verse, not the rest of the song

I want to post or [tab]
guest
You may want to rate the tab now too:
select rating
Please do not post tabs as comments. Select "correction" instead!