Oops, an error
Loading. Please wait.

Shotgun Tab

version 3
version 3
3,957 views 1 this week
no commentswrite comment
1 2 3 4 5
please rate
add to favorites
launch autoscroll
font size
0
reset
how to read this tab
guitar tuner
Autoscroll
slow
fast
+/-
esc
set tempo
stop
Help us to improve Ultimate-Guitar.com Take our survey!
×
Difficulty
intermediate
Artist: Dave Matthews Band
Album: Live/Unreleased
Song: Shotgun


Transcribed by: Tom Feldmann
E-Mail:tom_feldmann@hotmail.com

I know this sounds right but I'm not sure if this is actually how he plays it.  I tried 
figure it out in a style similar to Dave's playing.  The pinky on the 8th fret on the 
string isn't always audible so hitting that note isn't incredibly important.  Great new song and relatively fun to play


Finger Key:
1 = Index
2 = Middle
3 = Ring
4 = Pinky


Whole song right here:

                                         4
                                         1
                                         X
                                         2
        1    1  3    4    1    3    4  3 3

e---|-3/5----3---------------------------8-----|
B---|-----------5----6----3----5----6----6-----|
G---|------------------------------------0-----|
D---|------------------------------------7-----|
A---|----------------------------------6/8-----|
E---|------------------------------------------|


                                         4
                                         2
                                         X
                                         X
        1    1  3    4    1    1    2    1

e---|-3/5----3---------------------------8-----|
B---|-----------5----6----3----5----6----6-----|
G---|------------------------------------X-----|
D---|------------------------------------X-----|
A---|------------------------------------6-----|
E---|------------------------------------------|


                                         4
                                         2
                                         X
                                         X
        1    1  3    4    1    1    2    1

e---|-3/5----3---------------------------8-----|
B---|-----------5----6----3----5----6----6-----|
G---|------------------------------------X-----|
D---|------------------------------------X-----|
A---|------------------------------------5-----|
E---|------------------------------------------|

                                         4
                                         2
                                         X
                                         X
                                         X
        1    1  3    4    1    1    2    1

e---|-3/5----3---------------------------8-----|
B---|-----------5----6----3----5----6----6-----|
G---|------------------------------------X-----|
D---|------------------------------------X-----|
A---|------------------------------------X-----|
E---|------------------------------------6-----|


                                         4
                                         1
                                         X
                                         2
        1    1  3    4    1    3    4  3 3

e---|-3/5----3---------------------------8-----|
B---|-----------5----6----3----5----6----6-----|
G---|------------------------------------0-----|
D---|------------------------------------7-----|
A---|----------------------------------6/8-----|
E---|------------------------------------------|

The ending has a little variation, like a sad fade that goes like:

e---|-3h5----3---------------------------------|
B---|-----------6------------------------------|
G---|------------------------------------------|
D---|------------------------------------------|
A---|------------------------------------------|
E---|------------------------------------------|
Suggest correction
Give kudos to tab author, rate the tab!
1 2 3 4 5
comments
print report bad tab
guest
You may want to rate the tab now too:
select rating
Wanna post a correction for this tab? Suggest correction