Oops, an error
Loading. Please wait.

Sister Tab

version 3
version 3

Whole song

10,859 views 3 this week
1 commentread comment
1 2 3 4 5
1 last vote to show rating
add to favorites
launch autoscroll
font size
0
reset
how to read this tab
guitar tuner
Autoscroll
slow
fast
+/-
esc
set tempo
stop
Help us to improve Ultimate-Guitar.com Take our survey!
×
Author
Difficulty
Capo
intermediate
2nd fret
Tab: Dave Matthews Band - sister

Tabbed By: Schling

Tuning: Standard..with capo on 2nd fret

                                                                         x3
|----3-------------------3-------------------3-------------------3~3~3-|
|----3--------0^1-0------1--------0^1-0------3-------0^1-0-------3~3~3-|
|--0------0^2-------2----2----0^2-------2----0---0^2-------2-----0~0~0-|
|---------------------3----------------------2-------------------2~2~2-|
|-----------------------------------------3-------------------0--------|
|----------------------------------------------------------------------|

Passing time with you in mind.....

                                                                  x2
|-------3~3----3------3~3~3----3~3~3----3~3~3----3~3~3-----------|
|-------3~3----3------3~3~3----3~3~3----3~3~3----3~3~3-----------|
|-------0~0----0----2-2~2~2--0-0~0~0--0~0~0~0----0~0~0-----------|
|-------2~2----2-------------------------------4-----------------|
|--2/3--3~3--2-3-------------------------------------------------|
|----------------------------------------------------------------|

Sister, I hear you laugh...
                              x1
|-------3~3----3------3~3~3--|
|-------3~3----3------3~3~3--|
|-------0~0----0----2--------|
|-------2~2----2-------------|
|--2/3--3~3--2-3-------------|
|----------------------------|
                                                                         x3
|----3-------------------3-------------------3-------------------3~3~3-|
|----3--------0^1-0------1--------0^1-0------3-------0^1-0-------3~3~3-|
|--0------0^2-------2----2----0^2-------2----0---0^2-------2-----0~0~0-|
|---------------------3----------------------2-------------------2~2~2-|
|-----------------------------------------3-------------------0--------|
|----------------------------------------------------------------------|


                                                                  x2
|-------3~3----3------3~3~3----3~3~3----3~3~3----3~3~3-----------|
|-------3~3----3------3~3~3----3~3~3----3~3~3----3~3~3-----------|
|-------0~0----0----2-2~2~2--0-0~0~0--0~0~0~0----0~0~0-----------|
|-------2~2----2-------------------------------4-----------------|
|--2/3--3~3--2-3-------------------------------------------------|
|----------------------------------------------------------------|


                              x1
|-------3~3----3------3~3~3--|
|-------3~3----3------3~3~3--|
|-------0~0----0----2--------|
|-------2~2----2-------------|
|--2/3--3~3--2-3-------------|
|----------------------------|
                                                                         x1
|----3-------------------3-------------------3-------------------3~3~3-|
|----3--------0^1-0------1--------0^1-0------3-------0^1-0-------3~3~3-|
|--0------0^2-------2----2----0^2-------2----0---0^2-------2-----0~0~0-|
|---------------------3----------------------2-------------------2~2~2-|
|-----------------------------------------3-------------------0--------|
|----------------------------------------------------------------------|

                                                 x1
|--------------------------------------3-3-3---|
|--------------------------------------3-3-3---|
|--------------------------------------0-0-0---|
|--------------------------------------0-0-0---|
|--------------------------------------x-x-x---|
|--3/5--5--5--5--5/7--7--7--7--7/3--3--3-3-3---|

|-----------------------------------3---------------------1---|
|-----------------------------------3----------0-------2--3---|
|-----------------------------------0------0^2---0---3--------|
|-----------------------------------0-------------------------|
|-----------------------------------x-------------------------|
|--3/5--5--5--5--5/7--7--7--7--7/3--3-------------------------|


 ------------------3-------------------3~3~3----3~3~3----3-|
 -----0^1-0--------3-------0^1-0-------3~3~3----3~3~3----3-|
 -0^2-------2-----0---0^2-------2------0~0~0----0~0~0----0-|
 ----------------2---------------------2~2~2----2~2~2----0-|
 -------------3-------------------0-----------0------------|
 ----------------------------------------------------------|

This is it...i think it's accurate...hope you enjoy!
Suggest correction
Give kudos to tab author, rate the tab!
1 2 3 4 5
comments
print report bad tab
1 comment total.
0 reply
celeste.princes 10 Jan 31, 2014 05:53 PM

Im having a bit of a hard time correlating the words with the music. Could you put lyrics above more of the tabs?

guest
You may want to rate the tab now too:
select rating
Wanna post a correction for this tab? Suggest correction