Oops, an error
Loading. Please wait.

Sister Tab

version 4
version 4

Whole song

11,525 views 3 this week
1 commentread comment
1 2 3 4 5
please rate
add to favorites
launch autoscroll
font size
0
reset
how to read this tab
guitar tuner
Autoscroll
slow
fast
+/-
esc
set tempo
stop
Help us to improve Ultimate-Guitar.com Take our survey!
×
Author
Capo
2nd fret
This is my first tab ever.  I couldn't find a good tab for this song on the internet so 
made my own. Hope its everyone likes it.

STANDARD TUNING
CAPO ON THE 2ND FRET
ALL NOTES ARE RELATIVE TO CAPO

INTRO/VERSE:

e|----3--------------------------------------------------|
B|----0---0----0h1-----1------1--0-----0h1-----1-----1-1-|
G|-0--0-----0h2------2--------2----0h2-----2---------0-0-|
D|----0--------------------3--3----------------------2-2-|
A|----2-------------------------------------------3--3-3-|
E|----3--------------------------------------------------|

e|------------------2------2----2--|
B|--0-----0h1---1---3--3--------3--|
G|----0h2-----2-----2-----------2--|
D|------------------0----0---0--0--|
A|----------------0----------------|
E|---------------------------------|

CHORUS:
  "Sister, I hear you laugh...keep me please"
  "Sister, when you cry...down my face"
e|-----------------------2------x----3--3----3-----3-----3|
B|-----1----------1------3---3--x----0----0--0-----0------|
G|-----0---0------0--0---2--2-0-x--0-0-0-0-0-0--0--0-----2| (x2)
D|-----2-------2--2------0------x----0-------0---2-2-2-0-0|
A|-0/3-3--3--3----3-------------x----2-------2-----2-----0|
E|------------------------------x----3-------3-----------2|

THEN END THE CHORUS WITH THIS:
  "Sister, Sister, keep me"
e|-----------------2--------2-|
B|----1------1-----3---3----3-|
G|----0--0---0-0-2-2-2---2--2-|
D|----2----2-2-----0--------0-|
A|0/3-3-3-3--3----------------|
E|----------------------------|


www.davematthewsband.com
Suggest correction
Give kudos to tab author, rate the tab!
1 2 3 4 5
comments
print report bad tab
1 comment total.
0 reply
macedaace14 10 wrote on June 16 2008, 10:20 am

great tab. thanks!

guest
You may want to rate the tab now too:
select rating
Please do not post tabs as comments. Select "correction" instead!