Oops, an error
Loading. Please wait.

Sister Tab

version 5
version 5

Whole song

5,832 views 1 this week
3 commentsread comments
1 2 3 4 5
please rate
add to favorites
launch autoscroll
font size
0
reset
how to read this tab
guitar tuner
Autoscroll
slow
fast
+/-
esc
set tempo
stop
Help us to improve Ultimate-Guitar.com Take our survey!
×
Contributor
Difficulty
Capo
novice
7th fret
-------------------------------------------------------------------------------
                             SONG NAME - Band Name
-------------------------------------------------------------------------------
Tabbed by: Dan
Email:dflorez11@gmail.com

Tuning: Standard tuning with capo on 7th fret is what Dave normally uses. Tab relative 
capo position.
Intro
e|----------------------------------------------------------------3----------|
B|----------------------------------------------------------------3----------|
G|-----2----------------------------------------------------------0----------|
D|---0-----0--2--4--5--4------0--2--4--5--4-----0--2--4--5--4---2------------|
A|------------------------3------------------2------------------2------------|
E|-------------------------------------------------------------0-------------|
Verse: Same as intro but with more open note to give a fuller sound
e|------2-------------------------------------------------------3----3------|
B|------3------------------3------------------3-----------------3----3------|
G|-----2-------------------2------------------2-----------------0----0------|
D|---0-----0--2--4--5--4------0--2--4--5--4-----0--2--4--5--4---2----2------|
A|------------------------3------------------2------------------2----2------|
E|-------------------------------------------------------------0-----0------|
Chorus
e|----3----3-----0----0---2------0------0----0------3--------------------|
B|----3----3-----3----3---3------3------3----3------3--------------------|
G|----0----0-----2----2---2------2------2----2------0--------------------|
D|----0----0-----0----0---0------------------0------0--------------------|
A|----2----2-----4----4----------3------2----0------2--------------------|
E|----3----3----------------------------------------3--------------------|

These are the chords he uses, just listen to the song to find out the rythm and the 
of the song.  Have fun and feel free to correct.

| /  slide up
| \  slide down
| h  hammer-on
| p  pull-off
| ~  vibrato
| +  harmonic
| x  Mute note
===============================================================================
comments
We did not receive enough feedback on this tab! Please rate:
print report bad tab
1 2 3 4 5
3 comments total.
0 reply
Colmi 775 wrote on October 4 2006, 03:54 pm

This is truly a good song, and you've made a good transcription of the verse.

however the song is actually played in drop-A (basicly raised-b dropped one note)
Dave occationally plays it in drop-d with a capo on 7th.

And yes. I think the chorus goes like this.

b------------------------------------------|
F#------2--3--3--3------2--3--3--3-------2--|
D------2--0--0--0------2--0--0--0-------2--|
A------2--4--4--4------2--4--4--4-------2--|
E--/5--4--5--2--0--/5--4--5--2--0--/5---4--|
A--/5--------------/5--------------/5------|

Good job, Dave rules! =)

+1 reply
dmbfan2741 18 wrote on June 1 2008, 01:24 am

I think it's a capo second fret like this
Verse
e---3----------------------------2-3--------
b--------0h1-0-1----0h1-1----0h1-3-3--------
g-0---0h2------2-0h2----2-0h2----2-2--------
D--------------3--------0-------------------
A---2-------------------3-------------------
E---3---------------------------------------

Chorus
e-------2---3--3-------------------2--------
b---1---3---0--3---------------1---3--------
g---0---2---0--0--2------------0---2--------
D---2-0-0---0--2--0-X2-then----2-0-0--------
A-3-3-------2--2--0----------3-3------------
E---------3-3--0--2-------------------------

+1 reply
dmbfan2741 18 wrote on June 1 2008, 01:24 am

I think it's a capo second fret like this
Verse
e---3----------------------------2-3--------
b--------0h1-0-1----0h1-1----0h1-3-3--------
g-0---0h2------2-0h2----2-0h2----2-2--------
D--------------3--------0-------------------
A---2-------------------3-------------------
E---3---------------------------------------

Chorus
e-------2---3--3-------------------2--------
b---1---3---0--3---------------1---3--------
g---0---2---0--0--2------------0---2--------
D---2-0-0---0--2--0-X2-then----2-0-0--------
A-3-3-------2--2--0----------3-3------------
E---------3-3--0--2-------------------------

I want to post or [tab]
guest
You may want to rate the tab now too:
select rating
Please do not post tabs as comments. Select "correction" instead!