Oops, an error
Loading. Please wait.

Snow Outside Tab

version 1
version 1

Whole song

2,171 views 12 this week
2 commentsread comments
1 2 3 4 5
1 last vote to show rating
add to favorites
launch autoscroll
font size
0
reset
how to read this tab
guitar tuner
Autoscroll
slow
fast
+/-
esc
set tempo
stop
Help us to improve Ultimate-Guitar.com Take our survey!
×
Author
Difficulty
intermediate
Play this rythm throughout the entire song.

e|--------------------------------------------------------|
B|--------------------------------------------------------|
G|----2h4p2-----0---0---0-0-----2h4p2-----0---0---0-0-----|
D|------------2---3----5-5--------------2---3----5-5------|
A|--------------------------------------------------------|
E|--------------------------------------------------------|


h= hammer
p= pull off

A little difficult at first, but very fun once you get the hang of it.
Suggest correction
Give kudos to tab author, rate the tab!
1 2 3 4 5
comments
print report bad tab
2 comments total.
0 reply
Heavy-MatIll 41 Jan 09, 2013 02:21 PM

should be

e|-------------------------------|
B|-------------------------------|
G|----2h4p2-----0---0-----0------|
D|------------2---3-----5---5----|
A|--------------------5----------|
E|-------------------------------|

0 reply
Heavy-MatIll 41 Jan 09, 2013 02:23 PM


e|-------------------------------|
B|-------------------------------|
G|----2h4p2-----0---0-----0------|
D|------------2---3---0-5---5----|
A|-------------------------------|
E|-------------------------------|

guest
You may want to rate the tab now too:
select rating
Wanna post a correction for this tab? Suggest correction