Oops, an error
Loading. Please wait.

So Damn Lucky Tab

version 1
version 1

Acoustic

Whole song

Interactive

22,399 views 3 this week
1 commentread comment
1 2 3 4 5
accurate
x 7
add to favorites
launch autoscroll
font size
0
reset
how to read this tab
guitar tuner
Tab Pro tools
  • play this tab
  • loop segment
  • change instrument
  • show fretboard
  • metronome
×
Best way to learn
"So Damn Lucky"
Autoscroll
slow
fast
+/-
esc
set tempo
stop
Contributor
Difficulty
novice
-----------------------------------------------------------------------------
                        So Damn Lucky - Dave Matthews Band 
-----------------------------------------------------------------------------
Tabbed by:simmers33

Chords from the Live at Radio City Dave and Tim cd.  Haven't seen the DVD yet so its not perfect!

Tuning: Standard

Intro/verse chords: 
(sounds cool if you hammer-on the high F# once and a while)

    either:  E    A   or....   E    A   don't know which I like better
e|-----------2----2------------X----X---------------------------------------|
B|-----------0----0------------7----7---------------------------------------|
G|-----------1----2------------9----9---------------------------------------|
D|-----------2----2------------9----7---------------------------------------|
A|-----------2----0------------7----0---------------------------------------|
E|-----------0-----------------0--------------------------------------------|

Chorus:
(D/F# played only when coming from a verse into the chorus)
   D/F#   Bm  A   G        G   D/F#  Em      Em   D    C       Am      E
e|--X-------------3--------3----X----0-------0----X----0-------0------------|
B|--3-------------3--------3----3----0-------0----3----1-------1------------|
G|--2-----7---6---0--------0----2----0-------0----2----0-------2------(1)---|
D|--0-----X---X---0--------0----0----2-------2----0----2-------2-------2----|
A|--0-----X---X---2--------2----0----2-------2---------3-------0-------2----|
E|--2-----7---5---3--------3----2----0-------0-------------------------0----|
         "oh  my  god....  wait and  see...  what will soon be-come of me  


   E    Bm  A   G        G     D/F#  Em      Em   D    C       Am        E
e|--------------3--------3------X----0-------0----X----0-------0------------|
B|--------------3--------3------3----0-------0----3----1-------1------------|
G|(1)---7---6---0--------0------2----0-------0----2----0-------2--------(1)-|
D|-2----X---X---0--------0------0----2-------2----0----2-------2---------2--|
A|-2----X---X---2--------2------0----2-------2---------3-------0---------2--|
E|-0----7---5---3--------3------2----0-------0---------------------------0--|
 "with fro-zen heart and scream-ing wheels does that screaming come from me" 
                                                                  

| /  slide up
| \  slide down
| h  hammer-on
| p  pull-off
| ~  vibrato
| +  harmonic
| x  Mute note
=============================================================================
comments
print report bad tab
1 comment total.
-1 reply
vbbish wrote on September 3 2008, 02:58 pm

This is not right at all....

I want to post or [tab]
guest
You may want to rate the tab now too:
select rating
Please do not post tabs as comments. Select "correction" instead!