Oops, an error
Loading. Please wait.

So Damn Lucky Tab

version 1
version 1

Whole song

Interactive

18,951 views 1 this week
3 commentsread comments
1 2 3 4 5
accurate
x 5
add to favorites
launch autoscroll
font size
0
reset
how to read this tab
guitar tuner
Tab Pro tools
  • play this tab
  • loop segment
  • change instrument
  • show fretboard
  • metronome
×
Best way to learn
"So Damn Lucky"
Autoscroll
slow
fast
+/-
esc
set tempo
stop
Contributor
 so damn lucky - dave matthews
-------------------------------------------------------------------------------
Tabbed by:brett5
new some devil song!!!

Tuning:eadgbe-standard
	
	intro&verse:(everythings different...) 
e|---------------------------------------------------------------------------|
B|---------------------------------------------------------------------------|
G|-----------------9h-11-------------------------9h-11-----------------------|
D|------9h-11------9h-11---------9h-11-----------9h-11-----------------------|
A|------9h-11--------------------9h-11-------------------------------------  |
E|---------------------------------------------------------------------------|
	chorus:(ohh my god, wait and see, what will soon..)
e|---------------------------------------------------------------------------|
B|-------------------------------------------------3-----1-----2-------------|
G|-------------7-----6----4-----4---2--------------------------2-------------|
D|----2---------------------------------2-----5----4-----2-----2-------------|
A|----2---------------------------------2----------5-----3-------------------|
E|-------------7-----5----3-----3---2---------7------------------------------|
	little part after chorus: (so dizzy from all that spinning)
e|----0----------------------------------------------------------------------|
B|----0----------------------------------------------------------------------|
G|----0----------------------------------------------------------------------|
D|----2----------------------------------------------------------------------|
A|----2----------------------------------------------------------------------|
E|----0----------------------------------------------------------------------|

enjoy dave
comments
print report bad tab
3 comments total.
0 reply
dmb41302 wrote on October 12 2003, 12:00 am

in the chorus its not

--------- -------------
----3--1- ----3--1-----
--------- -------------
5---4--2- the correct way is -5--4--2----- that sounds better
----5--3- -7--5--3-----
7-------- -------------

0 reply
chronix wrote on December 2 2009, 12:49 pm

Also, in the verse he plays:

---------------
---------------
---h11--9-h11--
-9------9-h11--
-9-h11---------
---------------

At least that is what it is on the dvd I have at home

0 reply
Kid Stratocast wrote on November 28 2010, 06:43 pm

it makes all the difference if you hit the low E and let it ring out as you're strumming, especially on an acoustic with fresh strings!!!

I want to post or [tab]
guest
You may want to rate the tab now too:
select rating
Please do not post tabs as comments. Select "correction" instead!